ISO-10303-21;
HEADER;
/* Generated by software containing ST-Developer
 * from STEP Tools, Inc. (www.steptools.com) 
 */
/* OPTION: strings as raw bytes, not using required /X/ escapes */

FILE_DESCRIPTION(
/* description */ ('Unknown'),
/* implementation_level */ '2;1');

FILE_NAME(
/* name */ 'F25DN22',
/* time_stamp */ '2016-07-07T13:21:11+02:00',
/* author */ ('Unknown'),
/* organization */ ('Unknown'),
/* preprocessor_version */ 'ST-DEVELOPER v16',
/* originating_system */ 'DEX',
/* authorisation */ $);

FILE_SCHEMA (('AUTOMOTIVE_DESIGN {1 0 10303 214 3 1 1}'));
ENDSEC;

DATA;
#10=PROPERTY_DEFINITION_REPRESENTATION(#14,#12);
#11=PROPERTY_DEFINITION_REPRESENTATION(#15,#13);
#12=REPRESENTATION('',(#16),#611);
#13=REPRESENTATION('',(#17),#611);
#14=PROPERTY_DEFINITION('pmi validation property','',#616);
#15=PROPERTY_DEFINITION('pmi validation property','',#616);
#16=VALUE_REPRESENTATION_ITEM('number of annotations',COUNT_MEASURE(0.));
#17=VALUE_REPRESENTATION_ITEM('number of views',COUNT_MEASURE(0.));
#18=SHAPE_REPRESENTATION_RELATIONSHIP('','',#345,#19);
#19=ADVANCED_BREP_SHAPE_REPRESENTATION('',(#343),#611);
#20=ORIENTED_CLOSED_SHELL('',*,#334,.F.);
#21=CONICAL_SURFACE('',#371,12.5,0.785398163397447);
#22=CONICAL_SURFACE('',#386,12.5,0.785398163397447);
#23=TOROIDAL_SURFACE('',#353,34.,11.);
#24=TOROIDAL_SURFACE('',#360,34.,11.);
#25=TOROIDAL_SURFACE('',#364,34.,11.);
#26=TOROIDAL_SURFACE('',#394,34.,9.5);
#27=TOROIDAL_SURFACE('',#398,34.,9.50000000000001);
#28=TOROIDAL_SURFACE('',#402,34.,9.5);
#29=CYLINDRICAL_SURFACE('',#350,11.);
#30=CYLINDRICAL_SURFACE('',#355,11.);
#31=CYLINDRICAL_SURFACE('',#357,11.);
#32=CYLINDRICAL_SURFACE('',#362,11.);
#33=CYLINDRICAL_SURFACE('',#367,12.5);
#34=CYLINDRICAL_SURFACE('',#369,13.5);
#35=CYLINDRICAL_SURFACE('',#372,11.);
#36=CYLINDRICAL_SURFACE('',#375,11.);
#37=CYLINDRICAL_SURFACE('',#379,13.5);
#38=CYLINDRICAL_SURFACE('',#382,12.5);
#39=CYLINDRICAL_SURFACE('',#392,9.5);
#40=CYLINDRICAL_SURFACE('',#396,9.50000000000001);
#41=CYLINDRICAL_SURFACE('',#400,9.50000000000001);
#42=CYLINDRICAL_SURFACE('',#404,9.5);
#43=ORIENTED_EDGE('',*,*,#99,.F.);
#44=ORIENTED_EDGE('',*,*,#100,.T.);
#45=ORIENTED_EDGE('',*,*,#101,.T.);
#46=ORIENTED_EDGE('',*,*,#102,.F.);
#47=ORIENTED_EDGE('',*,*,#102,.T.);
#48=ORIENTED_EDGE('',*,*,#103,.F.);
#49=ORIENTED_EDGE('',*,*,#103,.T.);
#50=ORIENTED_EDGE('',*,*,#104,.F.);
#51=ORIENTED_EDGE('',*,*,#105,.F.);
#52=ORIENTED_EDGE('',*,*,#106,.T.);
#53=ORIENTED_EDGE('',*,*,#107,.F.);
#54=ORIENTED_EDGE('',*,*,#105,.T.);
#55=ORIENTED_EDGE('',*,*,#108,.F.);
#56=ORIENTED_EDGE('',*,*,#107,.T.);
#57=ORIENTED_EDGE('',*,*,#101,.F.);
#58=ORIENTED_EDGE('',*,*,#108,.T.);
#59=ORIENTED_EDGE('',*,*,#109,.T.);
#60=ORIENTED_EDGE('',*,*,#104,.T.);
#61=ORIENTED_EDGE('',*,*,#110,.F.);
#62=ORIENTED_EDGE('',*,*,#109,.F.);
#63=ORIENTED_EDGE('',*,*,#111,.T.);
#64=ORIENTED_EDGE('',*,*,#99,.T.);
#65=ORIENTED_EDGE('',*,*,#111,.F.);
#66=ORIENTED_EDGE('',*,*,#110,.T.);
#67=ORIENTED_EDGE('',*,*,#112,.T.);
#68=ORIENTED_EDGE('',*,*,#100,.F.);
#69=ORIENTED_EDGE('',*,*,#112,.F.);
#70=ORIENTED_EDGE('',*,*,#113,.F.);
#71=ORIENTED_EDGE('',*,*,#114,.T.);
#72=ORIENTED_EDGE('',*,*,#113,.T.);
#73=ORIENTED_EDGE('',*,*,#115,.F.);
#74=ORIENTED_EDGE('',*,*,#116,.F.);
#75=ORIENTED_EDGE('',*,*,#117,.T.);
#76=ORIENTED_EDGE('',*,*,#118,.T.);
#77=ORIENTED_EDGE('',*,*,#116,.T.);
#78=ORIENTED_EDGE('',*,*,#114,.F.);
#79=ORIENTED_EDGE('',*,*,#115,.T.);
#80=ORIENTED_EDGE('',*,*,#117,.F.);
#81=ORIENTED_EDGE('',*,*,#118,.F.);
#82=ORIENTED_EDGE('',*,*,#106,.F.);
#83=ORIENTED_EDGE('',*,*,#119,.T.);
#84=ORIENTED_EDGE('',*,*,#120,.T.);
#85=ORIENTED_EDGE('',*,*,#121,.F.);
#86=ORIENTED_EDGE('',*,*,#120,.F.);
#87=ORIENTED_EDGE('',*,*,#122,.F.);
#88=ORIENTED_EDGE('',*,*,#121,.T.);
#89=ORIENTED_EDGE('',*,*,#123,.F.);
#90=ORIENTED_EDGE('',*,*,#122,.T.);
#91=ORIENTED_EDGE('',*,*,#123,.T.);
#92=ORIENTED_EDGE('',*,*,#124,.F.);
#93=ORIENTED_EDGE('',*,*,#124,.T.);
#94=ORIENTED_EDGE('',*,*,#125,.F.);
#95=ORIENTED_EDGE('',*,*,#125,.T.);
#96=ORIENTED_EDGE('',*,*,#126,.F.);
#97=ORIENTED_EDGE('',*,*,#126,.T.);
#98=ORIENTED_EDGE('',*,*,#119,.F.);
#99=EDGE_CURVE('',#127,#127,#155,.T.);
#100=EDGE_CURVE('',#128,#128,#156,.T.);
#101=EDGE_CURVE('',#129,#129,#157,.T.);
#102=EDGE_CURVE('',#130,#130,#158,.T.);
#103=EDGE_CURVE('',#131,#131,#159,.T.);
#104=EDGE_CURVE('',#132,#132,#160,.T.);
#105=EDGE_CURVE('',#133,#133,#161,.T.);
#106=EDGE_CURVE('',#134,#134,#162,.T.);
#107=EDGE_CURVE('',#135,#135,#163,.T.);
#108=EDGE_CURVE('',#136,#136,#164,.T.);
#109=EDGE_CURVE('',#137,#137,#165,.T.);
#110=EDGE_CURVE('',#138,#138,#166,.F.);
#111=EDGE_CURVE('',#139,#139,#167,.F.);
#112=EDGE_CURVE('',#140,#140,#168,.T.);
#113=EDGE_CURVE('',#141,#141,#169,.T.);
#114=EDGE_CURVE('',#142,#142,#170,.T.);
#115=EDGE_CURVE('',#143,#143,#171,.F.);
#116=EDGE_CURVE('',#144,#144,#172,.T.);
#117=EDGE_CURVE('',#145,#145,#173,.F.);
#118=EDGE_CURVE('',#146,#146,#174,.T.);
#119=EDGE_CURVE('',#147,#147,#175,.T.);
#120=EDGE_CURVE('',#148,#148,#176,.T.);
#121=EDGE_CURVE('',#149,#149,#177,.T.);
#122=EDGE_CURVE('',#150,#150,#178,.T.);
#123=EDGE_CURVE('',#151,#151,#179,.T.);
#124=EDGE_CURVE('',#152,#152,#180,.T.);
#125=EDGE_CURVE('',#153,#153,#181,.T.);
#126=EDGE_CURVE('',#154,#154,#182,.T.);
#127=VERTEX_POINT('',#526);
#128=VERTEX_POINT('',#528);
#129=VERTEX_POINT('',#531);
#130=VERTEX_POINT('',#533);
#131=VERTEX_POINT('',#536);
#132=VERTEX_POINT('',#539);
#133=VERTEX_POINT('',#542);
#134=VERTEX_POINT('',#544);
#135=VERTEX_POINT('',#547);
#136=VERTEX_POINT('',#550);
#137=VERTEX_POINT('',#554);
#138=VERTEX_POINT('',#557);
#139=VERTEX_POINT('',#560);
#140=VERTEX_POINT('',#564);
#141=VERTEX_POINT('',#568);
#142=VERTEX_POINT('',#570);
#143=VERTEX_POINT('',#574);
#144=VERTEX_POINT('',#576);
#145=VERTEX_POINT('',#579);
#146=VERTEX_POINT('',#581);
#147=VERTEX_POINT('',#587);
#148=VERTEX_POINT('',#590);
#149=VERTEX_POINT('',#593);
#150=VERTEX_POINT('',#596);
#151=VERTEX_POINT('',#599);
#152=VERTEX_POINT('',#602);
#153=VERTEX_POINT('',#605);
#154=VERTEX_POINT('',#608);
#155=CIRCLE('',#348,13.5);
#156=CIRCLE('',#349,11.);
#157=CIRCLE('',#351,11.);
#158=CIRCLE('',#352,11.);
#159=CIRCLE('',#354,11.);
#160=CIRCLE('',#356,11.);
#161=CIRCLE('',#358,11.);
#162=CIRCLE('',#359,11.);
#163=CIRCLE('',#361,11.);
#164=CIRCLE('',#363,11.);
#165=CIRCLE('',#366,12.5);
#166=CIRCLE('',#368,12.5);
#167=CIRCLE('',#370,13.5);
#168=CIRCLE('',#373,11.);
#169=CIRCLE('',#376,11.);
#170=CIRCLE('',#377,11.);
#171=CIRCLE('',#380,13.5);
#172=CIRCLE('',#381,13.5);
#173=CIRCLE('',#383,12.5);
#174=CIRCLE('',#384,12.5);
#175=CIRCLE('',#389,9.5);
#176=CIRCLE('',#391,9.5);
#177=CIRCLE('',#393,9.5);
#178=CIRCLE('',#395,9.50000000000001);
#179=CIRCLE('',#397,9.50000000000002);
#180=CIRCLE('',#399,9.50000000000001);
#181=CIRCLE('',#401,9.50000000000001);
#182=CIRCLE('',#403,9.5);
#183=EDGE_LOOP('',(#43));
#184=EDGE_LOOP('',(#44));
#185=EDGE_LOOP('',(#45));
#186=EDGE_LOOP('',(#46));
#187=EDGE_LOOP('',(#47));
#188=EDGE_LOOP('',(#48));
#189=EDGE_LOOP('',(#49));
#190=EDGE_LOOP('',(#50));
#191=EDGE_LOOP('',(#51));
#192=EDGE_LOOP('',(#52));
#193=EDGE_LOOP('',(#53));
#194=EDGE_LOOP('',(#54));
#195=EDGE_LOOP('',(#55));
#196=EDGE_LOOP('',(#56));
#197=EDGE_LOOP('',(#57));
#198=EDGE_LOOP('',(#58));
#199=EDGE_LOOP('',(#59));
#200=EDGE_LOOP('',(#60));
#201=EDGE_LOOP('',(#61));
#202=EDGE_LOOP('',(#62));
#203=EDGE_LOOP('',(#63));
#204=EDGE_LOOP('',(#64));
#205=EDGE_LOOP('',(#65));
#206=EDGE_LOOP('',(#66));
#207=EDGE_LOOP('',(#67));
#208=EDGE_LOOP('',(#68));
#209=EDGE_LOOP('',(#69));
#210=EDGE_LOOP('',(#70));
#211=EDGE_LOOP('',(#71));
#212=EDGE_LOOP('',(#72));
#213=EDGE_LOOP('',(#73));
#214=EDGE_LOOP('',(#74));
#215=EDGE_LOOP('',(#75));
#216=EDGE_LOOP('',(#76));
#217=EDGE_LOOP('',(#77));
#218=EDGE_LOOP('',(#78));
#219=EDGE_LOOP('',(#79));
#220=EDGE_LOOP('',(#80));
#221=EDGE_LOOP('',(#81));
#222=EDGE_LOOP('',(#82));
#223=EDGE_LOOP('',(#83));
#224=EDGE_LOOP('',(#84));
#225=EDGE_LOOP('',(#85));
#226=EDGE_LOOP('',(#86));
#227=EDGE_LOOP('',(#87));
#228=EDGE_LOOP('',(#88));
#229=EDGE_LOOP('',(#89));
#230=EDGE_LOOP('',(#90));
#231=EDGE_LOOP('',(#91));
#232=EDGE_LOOP('',(#92));
#233=EDGE_LOOP('',(#93));
#234=EDGE_LOOP('',(#94));
#235=EDGE_LOOP('',(#95));
#236=EDGE_LOOP('',(#96));
#237=EDGE_LOOP('',(#97));
#238=EDGE_LOOP('',(#98));
#239=FACE_BOUND('',#183,.T.);
#240=FACE_BOUND('',#184,.T.);
#241=FACE_BOUND('',#185,.T.);
#242=FACE_BOUND('',#186,.T.);
#243=FACE_BOUND('',#187,.T.);
#244=FACE_BOUND('',#188,.T.);
#245=FACE_BOUND('',#189,.T.);
#246=FACE_BOUND('',#190,.T.);
#247=FACE_BOUND('',#191,.T.);
#248=FACE_BOUND('',#192,.T.);
#249=FACE_BOUND('',#193,.T.);
#250=FACE_BOUND('',#194,.T.);
#251=FACE_BOUND('',#195,.T.);
#252=FACE_BOUND('',#196,.T.);
#253=FACE_BOUND('',#197,.T.);
#254=FACE_BOUND('',#198,.T.);
#255=FACE_BOUND('',#199,.T.);
#256=FACE_BOUND('',#200,.T.);
#257=FACE_BOUND('',#201,.T.);
#258=FACE_BOUND('',#202,.T.);
#259=FACE_BOUND('',#203,.T.);
#260=FACE_BOUND('',#204,.T.);
#261=FACE_BOUND('',#205,.T.);
#262=FACE_BOUND('',#206,.T.);
#263=FACE_BOUND('',#207,.T.);
#264=FACE_BOUND('',#208,.T.);
#265=FACE_BOUND('',#209,.T.);
#266=FACE_BOUND('',#210,.T.);
#267=FACE_BOUND('',#211,.T.);
#268=FACE_BOUND('',#212,.T.);
#269=FACE_BOUND('',#213,.T.);
#270=FACE_BOUND('',#214,.T.);
#271=FACE_BOUND('',#215,.T.);
#272=FACE_BOUND('',#216,.T.);
#273=FACE_BOUND('',#217,.T.);
#274=FACE_BOUND('',#218,.T.);
#275=FACE_BOUND('',#219,.T.);
#276=FACE_BOUND('',#220,.T.);
#277=FACE_BOUND('',#221,.T.);
#278=FACE_BOUND('',#222,.T.);
#279=FACE_BOUND('',#223,.T.);
#280=FACE_BOUND('',#224,.T.);
#281=FACE_BOUND('',#225,.T.);
#282=FACE_BOUND('',#226,.T.);
#283=FACE_BOUND('',#227,.T.);
#284=FACE_BOUND('',#228,.T.);
#285=FACE_BOUND('',#229,.T.);
#286=FACE_BOUND('',#230,.T.);
#287=FACE_BOUND('',#231,.T.);
#288=FACE_BOUND('',#232,.T.);
#289=FACE_BOUND('',#233,.T.);
#290=FACE_BOUND('',#234,.T.);
#291=FACE_BOUND('',#235,.T.);
#292=FACE_BOUND('',#236,.T.);
#293=FACE_BOUND('',#237,.T.);
#294=FACE_BOUND('',#238,.T.);
#295=PLANE('',#347);
#296=PLANE('',#365);
#297=PLANE('',#374);
#298=PLANE('',#378);
#299=PLANE('',#385);
#300=PLANE('',#387);
#301=PLANE('',#388);
#302=PLANE('',#390);
#303=ADVANCED_FACE('',(#239,#240),#295,.F.);
#304=ADVANCED_FACE('',(#241,#242),#29,.T.);
#305=ADVANCED_FACE('',(#243,#244),#23,.T.);
#306=ADVANCED_FACE('',(#245,#246),#30,.T.);
#307=ADVANCED_FACE('',(#247,#248),#31,.T.);
#308=ADVANCED_FACE('',(#249,#250),#24,.T.);
#309=ADVANCED_FACE('',(#251,#252),#32,.T.);
#310=ADVANCED_FACE('',(#253,#254),#25,.T.);
#311=ADVANCED_FACE('',(#255,#256),#296,.T.);
#312=ADVANCED_FACE('',(#257,#258),#33,.T.);
#313=ADVANCED_FACE('',(#259,#260),#34,.T.);
#314=ADVANCED_FACE('',(#261,#262),#21,.T.);
#315=ADVANCED_FACE('',(#263,#264),#35,.F.);
#316=ADVANCED_FACE('',(#265),#297,.F.);
#317=ADVANCED_FACE('',(#266,#267),#36,.F.);
#318=ADVANCED_FACE('',(#268),#298,.F.);
#319=ADVANCED_FACE('',(#269,#270),#37,.T.);
#320=ADVANCED_FACE('',(#271,#272),#38,.T.);
#321=ADVANCED_FACE('',(#273,#274),#299,.F.);
#322=ADVANCED_FACE('',(#275,#276),#22,.T.);
#323=ADVANCED_FACE('',(#277,#278),#300,.T.);
#324=ADVANCED_FACE('',(#279),#301,.T.);
#325=ADVANCED_FACE('',(#280),#302,.T.);
#326=ADVANCED_FACE('',(#281,#282),#39,.F.);
#327=ADVANCED_FACE('',(#283,#284),#26,.F.);
#328=ADVANCED_FACE('',(#285,#286),#40,.F.);
#329=ADVANCED_FACE('',(#287,#288),#27,.F.);
#330=ADVANCED_FACE('',(#289,#290),#41,.F.);
#331=ADVANCED_FACE('',(#291,#292),#28,.F.);
#332=ADVANCED_FACE('',(#293,#294),#42,.F.);
#333=CLOSED_SHELL('',(#303,#304,#305,#306,#307,#308,#309,#310,#311,#312,
#313,#314,#315,#316,#317,#318,#319,#320,#321,#322,#323));
#334=CLOSED_SHELL('',(#324,#325,#326,#327,#328,#329,#330,#331,#332));
#335=STYLED_ITEM('',(#336),#343);
#336=PRESENTATION_STYLE_ASSIGNMENT((#337));
#337=SURFACE_STYLE_USAGE(.BOTH.,#338);
#338=SURFACE_SIDE_STYLE('',(#339));
#339=SURFACE_STYLE_FILL_AREA(#340);
#340=FILL_AREA_STYLE('',(#341));
#341=FILL_AREA_STYLE_COLOUR('',#342);
#342=COLOUR_RGB('',0.119999997317791,0.75,0.119999997317791);
#343=BREP_WITH_VOIDS('',#333,(#20));
#344=SHAPE_DEFINITION_REPRESENTATION(#616,#345);
#345=SHAPE_REPRESENTATION('F25DN22',(#346),#611);
#346=AXIS2_PLACEMENT_3D('',#523,#405,#406);
#347=AXIS2_PLACEMENT_3D('',#524,#407,#408);
#348=AXIS2_PLACEMENT_3D('',#525,#409,#410);
#349=AXIS2_PLACEMENT_3D('',#527,#411,#412);
#350=AXIS2_PLACEMENT_3D('',#529,#413,#414);
#351=AXIS2_PLACEMENT_3D('',#530,#415,#416);
#352=AXIS2_PLACEMENT_3D('',#532,#417,#418);
#353=AXIS2_PLACEMENT_3D('',#534,#419,#420);
#354=AXIS2_PLACEMENT_3D('',#535,#421,#422);
#355=AXIS2_PLACEMENT_3D('',#537,#423,#424);
#356=AXIS2_PLACEMENT_3D('',#538,#425,#426);
#357=AXIS2_PLACEMENT_3D('',#540,#427,#428);
#358=AXIS2_PLACEMENT_3D('',#541,#429,#430);
#359=AXIS2_PLACEMENT_3D('',#543,#431,#432);
#360=AXIS2_PLACEMENT_3D('',#545,#433,#434);
#361=AXIS2_PLACEMENT_3D('',#546,#435,#436);
#362=AXIS2_PLACEMENT_3D('',#548,#437,#438);
#363=AXIS2_PLACEMENT_3D('',#549,#439,#440);
#364=AXIS2_PLACEMENT_3D('',#551,#441,#442);
#365=AXIS2_PLACEMENT_3D('',#552,#443,#444);
#366=AXIS2_PLACEMENT_3D('',#553,#445,#446);
#367=AXIS2_PLACEMENT_3D('',#555,#447,#448);
#368=AXIS2_PLACEMENT_3D('',#556,#449,#450);
#369=AXIS2_PLACEMENT_3D('',#558,#451,#452);
#370=AXIS2_PLACEMENT_3D('',#559,#453,#454);
#371=AXIS2_PLACEMENT_3D('',#561,#455,#456);
#372=AXIS2_PLACEMENT_3D('',#562,#457,#458);
#373=AXIS2_PLACEMENT_3D('',#563,#459,#460);
#374=AXIS2_PLACEMENT_3D('',#565,#461,#462);
#375=AXIS2_PLACEMENT_3D('',#566,#463,#464);
#376=AXIS2_PLACEMENT_3D('',#567,#465,#466);
#377=AXIS2_PLACEMENT_3D('',#569,#467,#468);
#378=AXIS2_PLACEMENT_3D('',#571,#469,#470);
#379=AXIS2_PLACEMENT_3D('',#572,#471,#472);
#380=AXIS2_PLACEMENT_3D('',#573,#473,#474);
#381=AXIS2_PLACEMENT_3D('',#575,#475,#476);
#382=AXIS2_PLACEMENT_3D('',#577,#477,#478);
#383=AXIS2_PLACEMENT_3D('',#578,#479,#480);
#384=AXIS2_PLACEMENT_3D('',#580,#481,#482);
#385=AXIS2_PLACEMENT_3D('',#582,#483,#484);
#386=AXIS2_PLACEMENT_3D('',#583,#485,#486);
#387=AXIS2_PLACEMENT_3D('',#584,#487,#488);
#388=AXIS2_PLACEMENT_3D('',#585,#489,#490);
#389=AXIS2_PLACEMENT_3D('',#586,#491,#492);
#390=AXIS2_PLACEMENT_3D('',#588,#493,#494);
#391=AXIS2_PLACEMENT_3D('',#589,#495,#496);
#392=AXIS2_PLACEMENT_3D('',#591,#497,#498);
#393=AXIS2_PLACEMENT_3D('',#592,#499,#500);
#394=AXIS2_PLACEMENT_3D('',#594,#501,#502);
#395=AXIS2_PLACEMENT_3D('',#595,#503,#504);
#396=AXIS2_PLACEMENT_3D('',#597,#505,#506);
#397=AXIS2_PLACEMENT_3D('',#598,#507,#508);
#398=AXIS2_PLACEMENT_3D('',#600,#509,#510);
#399=AXIS2_PLACEMENT_3D('',#601,#511,#512);
#400=AXIS2_PLACEMENT_3D('',#603,#513,#514);
#401=AXIS2_PLACEMENT_3D('',#604,#515,#516);
#402=AXIS2_PLACEMENT_3D('',#606,#517,#518);
#403=AXIS2_PLACEMENT_3D('',#607,#519,#520);
#404=AXIS2_PLACEMENT_3D('',#609,#521,#522);
#405=DIRECTION('',(0.,0.,1.));
#406=DIRECTION('',(1.,0.,0.));
#407=DIRECTION('',(0.,-1.,7.91033905045424E-16));
#408=DIRECTION('',(0.,-7.91033905045424E-16,-1.));
#409=DIRECTION('',(0.,-1.,7.91033905045424E-16));
#410=DIRECTION('',(-1.,0.,0.));
#411=DIRECTION('',(0.,-1.,7.91033905045424E-16));
#412=DIRECTION('',(-1.,0.,0.));
#413=DIRECTION('',(4.97731044746844E-17,0.767422584382187,0.641141620065461));
#414=DIRECTION('',(-6.5064238686502E-17,0.641141620065461,-0.767422584382187));
#415=DIRECTION('',(3.17167604386844E-16,0.767422584382187,0.641141620065462));
#416=DIRECTION('',(2.46519032881566E-32,-0.641141620065462,0.767422584382187));
#417=DIRECTION('',(4.97731044746844E-17,0.767422584382187,0.641141620065461));
#418=DIRECTION('',(1.87576135672748E-17,-0.641141620065461,0.767422584382187));
#419=DIRECTION('',(1.,1.01481851513334E-16,-1.99101985015266E-16));
#420=DIRECTION('',(-1.99101985015266E-16,-7.91033905045424E-16,-1.));
#421=DIRECTION('',(-1.01481851513335E-16,1.,-7.91033905045424E-16));
#422=DIRECTION('',(1.,1.01481851513335E-16,-4.01377926469164E-32));
#423=DIRECTION('',(-1.01481851513335E-16,1.,-7.91033905045424E-16));
#424=DIRECTION('',(4.01377926469164E-32,-7.91033905045424E-16,-1.));
#425=DIRECTION('',(-1.01481851513335E-16,1.,-7.91033905045424E-16));
#426=DIRECTION('',(1.,1.01481851513335E-16,-4.01377926469164E-32));
#427=DIRECTION('',(0.,-1.,0.));
#428=DIRECTION('',(0.,0.,-1.));
#429=DIRECTION('',(0.,1.,0.));
#430=DIRECTION('',(1.,0.,0.));
#431=DIRECTION('',(-1.01481851513335E-16,1.,0.));
#432=DIRECTION('',(-1.,-1.01481851513335E-16,0.));
#433=DIRECTION('',(1.,0.,-1.99101985015266E-16));
#434=DIRECTION('',(-1.99101985015266E-16,0.,-1.));
#435=DIRECTION('',(-1.27652569230937E-16,0.767422584382187,-0.641141620065462));
#436=DIRECTION('',(-4.63066251192271E-17,0.641141620065462,0.767422584382187));
#437=DIRECTION('',(1.27652569230937E-16,-0.767422584382187,0.641141620065462));
#438=DIRECTION('',(0.,-0.641141620065462,-0.767422584382187));
#439=DIRECTION('',(-1.27652569230937E-16,0.767422584382187,-0.641141620065462));
#440=DIRECTION('',(-4.63066251192271E-17,0.641141620065462,0.767422584382187));
#441=DIRECTION('',(-1.,0.,3.46896972288559E-16));
#442=DIRECTION('',(3.46896972288559E-16,0.,1.));
#443=DIRECTION('',(0.,-1.,7.91033905045424E-16));
#444=DIRECTION('',(0.,-7.91033905045424E-16,-1.));
#445=DIRECTION('',(0.,-1.,7.91033905045424E-16));
#446=DIRECTION('',(-1.,0.,0.));
#447=DIRECTION('',(1.01481851513335E-16,-1.,7.91033905045424E-16));
#448=DIRECTION('',(0.,-7.91033905045424E-16,-1.));
#449=DIRECTION('',(0.,-1.,7.91033905045424E-16));
#450=DIRECTION('',(0.,-7.91033905045424E-16,-1.));
#451=DIRECTION('',(0.,1.,-7.91033905045424E-16));
#452=DIRECTION('',(0.,7.91033905045424E-16,1.));
#453=DIRECTION('',(0.,-1.,7.91033905045429E-16));
#454=DIRECTION('',(0.,-7.91033905045429E-16,-1.));
#455=DIRECTION('',(0.,1.,-7.91033905045429E-16));
#456=DIRECTION('',(0.,7.91033905045429E-16,1.));
#457=DIRECTION('',(0.,1.,-7.91033905045424E-16));
#458=DIRECTION('',(0.,7.91033905045424E-16,1.));
#459=DIRECTION('',(0.,-1.,7.91033905045424E-16));
#460=DIRECTION('',(-1.,0.,0.));
#461=DIRECTION('',(0.,-1.,7.91033905045424E-16));
#462=DIRECTION('',(0.,-7.91033905045424E-16,-1.));
#463=DIRECTION('',(1.01481851513335E-16,-1.,0.));
#464=DIRECTION('',(4.01377926469164E-32,0.,1.));
#465=DIRECTION('',(1.01481851513335E-16,-1.,0.));
#466=DIRECTION('',(-1.,-1.01481851513335E-16,4.01377926469164E-32));
#467=DIRECTION('',(1.01481851513335E-16,-1.,0.));
#468=DIRECTION('',(-1.,-1.01481851513335E-16,4.01377926469164E-32));
#469=DIRECTION('',(-1.01481851513335E-16,1.,0.));
#470=DIRECTION('',(-4.01377926469164E-32,0.,-1.));
#471=DIRECTION('',(1.01481851513335E-16,-1.,0.));
#472=DIRECTION('',(4.01377926469165E-32,-9.86076131526265E-32,1.));
#473=DIRECTION('',(1.01481851513335E-16,-1.,-4.8317730444787E-30));
#474=DIRECTION('',(-4.01377926469169E-32,4.8317730444787E-30,-1.));
#475=DIRECTION('',(1.01481851513335E-16,-1.,0.));
#476=DIRECTION('',(-1.,-1.01481851513335E-16,4.01377926469164E-32));
#477=DIRECTION('',(-3.17503548573938E-47,1.,0.));
#478=DIRECTION('',(-4.01377926469165E-32,9.86076131526265E-32,-1.));
#479=DIRECTION('',(1.01481851513335E-16,-1.,0.));
#480=DIRECTION('',(-4.01377926469164E-32,0.,-1.));
#481=DIRECTION('',(1.01481851513335E-16,-1.,0.));
#482=DIRECTION('',(-1.,-1.01481851513335E-16,4.01377926469164E-32));
#483=DIRECTION('',(-1.01481851513335E-16,1.,0.));
#484=DIRECTION('',(-4.01377926469164E-32,0.,-1.));
#485=DIRECTION('',(1.01481851513335E-16,-1.,-4.8317730444787E-30));
#486=DIRECTION('',(4.01377926469169E-32,-4.8317730444787E-30,1.));
#487=DIRECTION('',(-1.01481851513335E-16,1.,0.));
#488=DIRECTION('',(-4.01377926469164E-32,0.,-1.));
#489=DIRECTION('',(-1.01481851513335E-16,1.,0.));
#490=DIRECTION('',(-4.01377926469164E-32,0.,-1.));
#491=DIRECTION('',(0.,1.,0.));
#492=DIRECTION('',(1.,0.,0.));
#493=DIRECTION('',(0.,-1.,7.91033905045424E-16));
#494=DIRECTION('',(0.,-7.91033905045424E-16,-1.));
#495=DIRECTION('',(0.,-1.,7.91033905045424E-16));
#496=DIRECTION('',(0.,-7.91033905045424E-16,-1.));
#497=DIRECTION('',(-1.01481851513335E-16,1.,-7.91033905045424E-16));
#498=DIRECTION('',(4.01377926469164E-32,-7.91033905045424E-16,-1.));
#499=DIRECTION('',(-1.01481851513335E-16,1.,-7.91033905045424E-16));
#500=DIRECTION('',(-4.01377926469164E-32,7.91033905045424E-16,1.));
#501=DIRECTION('',(1.,1.01481851513334E-16,-1.99101985015266E-16));
#502=DIRECTION('',(-1.99101985015266E-16,-7.91033905045424E-16,-1.));
#503=DIRECTION('',(4.97731044746845E-17,0.767422584382188,0.641141620065461));
#504=DIRECTION('',(1.87576135672748E-17,-0.641141620065461,0.767422584382187));
#505=DIRECTION('',(4.97731044746844E-17,0.767422584382187,0.641141620065461));
#506=DIRECTION('',(-6.5064238686502E-17,0.641141620065461,-0.767422584382187));
#507=DIRECTION('',(3.17167604386844E-16,0.767422584382187,0.641141620065462));
#508=DIRECTION('',(2.46519032881566E-32,-0.641141620065462,0.767422584382187));
#509=DIRECTION('',(-1.,0.,3.46896972288559E-16));
#510=DIRECTION('',(3.46896972288559E-16,0.,1.));
#511=DIRECTION('',(-1.27652569230937E-16,0.767422584382187,-0.641141620065462));
#512=DIRECTION('',(0.,0.641141620065462,0.767422584382187));
#513=DIRECTION('',(1.27652569230937E-16,-0.767422584382187,0.641141620065462));
#514=DIRECTION('',(0.,-0.641141620065462,-0.767422584382187));
#515=DIRECTION('',(-1.27652569230937E-16,0.767422584382187,-0.641141620065462));
#516=DIRECTION('',(-4.63066251192271E-17,0.641141620065462,0.767422584382187));
#517=DIRECTION('',(1.,0.,-1.99101985015266E-16));
#518=DIRECTION('',(-1.99101985015266E-16,0.,-1.));
#519=DIRECTION('',(0.,1.,0.));
#520=DIRECTION('',(0.,0.,1.));
#521=DIRECTION('',(0.,-1.,0.));
#522=DIRECTION('',(0.,0.,-1.));
#523=CARTESIAN_POINT('',(0.,0.,0.));
#524=CARTESIAN_POINT('',(-1.49439634336057E-14,254.933526973893,-1.11463462938556E-13));
#525=CARTESIAN_POINT('',(-1.49439634336057E-14,254.933526973893,-1.11463462938556E-13));
#526=CARTESIAN_POINT('',(-13.5,254.933526973893,-1.11463462938556E-13));
#527=CARTESIAN_POINT('',(-1.49439634336057E-14,254.933526973893,-1.11463462938556E-13));
#528=CARTESIAN_POINT('',(-11.,254.933526973893,-1.11463462938556E-13));
#529=CARTESIAN_POINT('',(-1.01199819867459E-14,134.732342056119,-36.0922177490834));
#530=CARTESIAN_POINT('',(-4.37355250040465E-15,134.732342056118,-36.0922177490834));
#531=CARTESIAN_POINT('',(-4.37355250040465E-15,127.679784235398,-27.6505693208793));
#532=CARTESIAN_POINT('',(-7.93195631403881E-15,168.46823886556,-7.90763213100569));
#533=CARTESIAN_POINT('',(-7.72562256479879E-15,161.41568104484,0.534016297198372));
#534=CARTESIAN_POINT('',(-1.36135873813335E-14,190.267053947785,-34.0000000000001));
#535=CARTESIAN_POINT('',(-8.53031041796294E-15,190.267053947785,-6.03100902552001E-14));
#536=CARTESIAN_POINT('',(11.,190.267053947785,-6.03100902552001E-14));
#537=CARTESIAN_POINT('',(-8.53031041796294E-15,190.267053947785,-6.03100902552001E-14));
#538=CARTESIAN_POINT('',(-1.21430643318377E-14,225.867053947785,-8.84708972748172E-14));
#539=CARTESIAN_POINT('',(11.,225.867053947785,-8.84708972748172E-14));
#540=CARTESIAN_POINT('',(0.,35.6,0.));
#541=CARTESIAN_POINT('',(0.,35.6,0.));
#542=CARTESIAN_POINT('',(11.,35.6,0.));
#543=CARTESIAN_POINT('',(0.,0.,0.));
#544=CARTESIAN_POINT('',(-11.,-1.11630036664668E-15,0.));
#545=CARTESIAN_POINT('',(-5.08327696337056E-15,35.6,-34.));
#546=CARTESIAN_POINT('',(-1.61383001141694E-15,57.3988150822257,-7.90763213100565));
#547=CARTESIAN_POINT('',(-2.12320288772844E-15,64.4513729029458,0.534016297198408));
#548=CARTESIAN_POINT('',(-7.22543695480893E-15,91.1347118916667,-36.0922177490834));
#549=CARTESIAN_POINT('',(-7.22543695480893E-15,91.1347118916667,-36.0922177490834));
#550=CARTESIAN_POINT('',(-7.73480983112043E-15,98.1872697123867,-27.6505693208793));
#551=CARTESIAN_POINT('',(2.56534140350257E-15,112.933526973892,-9.99984988008902));
#552=CARTESIAN_POINT('',(-1.21430643318377E-14,225.867053947785,-8.84708972748172E-14));
#553=CARTESIAN_POINT('',(-1.21430643318377E-14,225.867053947785,-8.84708972748172E-14));
#554=CARTESIAN_POINT('',(-12.5,225.867053947785,-8.84708972748172E-14));
#555=CARTESIAN_POINT('',(-1.49439634336057E-14,253.467053947785,-1.10303433054071E-13));
#556=CARTESIAN_POINT('',(-1.26758440522827E-14,231.117053947785,-9.26238252763056E-14));
#557=CARTESIAN_POINT('',(-1.26758440522827E-14,231.117053947785,-12.5000000000001));
#558=CARTESIAN_POINT('',(-1.49439634336057E-14,231.117053947785,-9.26238252763057E-14));
#559=CARTESIAN_POINT('',(-1.49439634336057E-14,232.117053947785,-9.34148591813511E-14));
#560=CARTESIAN_POINT('',(-1.49439634336057E-14,232.117053947785,-13.5000000000001));
#561=CARTESIAN_POINT('',(-1.49439634336057E-14,231.117053947785,-9.26238252763057E-14));
#562=CARTESIAN_POINT('',(-1.49439634336057E-14,234.067053947785,-9.49573752961896E-14));
#563=CARTESIAN_POINT('',(-1.49439634336057E-14,233.683526973893,-9.49573752961896E-14));
#564=CARTESIAN_POINT('',(-11.,233.683526973893,-9.49573752961896E-14));
#565=CARTESIAN_POINT('',(-1.49439634336057E-14,233.683526973893,-9.49573752961896E-14));
#566=CARTESIAN_POINT('',(-3.3334697525505E-15,-8.20000000000001,1.72670315578778E-15));
#567=CARTESIAN_POINT('',(-3.3334697525505E-15,-7.81647302610732,1.72670315578778E-15));
#568=CARTESIAN_POINT('',(-11.,-7.81647302610732,1.72670315578778E-15));
#569=CARTESIAN_POINT('',(-1.21590143530808E-15,-29.0664730261073,1.72670315578777E-15));
#570=CARTESIAN_POINT('',(-11.,-29.0664730261073,1.72670315578777E-15));
#571=CARTESIAN_POINT('',(-3.3334697525505E-15,-7.81647302610732,1.72670315578778E-15));
#572=CARTESIAN_POINT('',(-3.63284121451484E-15,-5.25,1.72670315578777E-15));
#573=CARTESIAN_POINT('',(-3.53135936300151E-15,-6.25000000000001,1.72670315578774E-15));
#574=CARTESIAN_POINT('',(-3.53135936300151E-15,-6.25000000000001,-13.5));
#575=CARTESIAN_POINT('',(-1.21590143530808E-15,-29.0664730261073,1.72670315578777E-15));
#576=CARTESIAN_POINT('',(-13.5,-29.0664730261073,1.72670315578777E-15));
#577=CARTESIAN_POINT('',(-1.36472183319181E-15,-27.6,1.72670315578777E-15));
#578=CARTESIAN_POINT('',(-1.36472183319181E-15,-5.25,1.72670315578778E-15));
#579=CARTESIAN_POINT('',(-1.36472183319181E-15,-5.25,-12.5));
#580=CARTESIAN_POINT('',(-1.36472183319182E-15,0.,1.72670315578777E-15));
#581=CARTESIAN_POINT('',(-12.5,-1.26852314391668E-15,1.72670315578777E-15));
#582=CARTESIAN_POINT('',(-1.21590143530808E-15,-29.0664730261073,1.72670315578777E-15));
#583=CARTESIAN_POINT('',(-3.63284121451484E-15,-5.25,1.72670315578777E-15));
#584=CARTESIAN_POINT('',(-1.36472183319182E-15,0.,1.72670315578777E-15));
#585=CARTESIAN_POINT('',(-1.36472183319182E-15,0.,1.72670315578777E-15));
#586=CARTESIAN_POINT('',(0.,0.,0.));
#587=CARTESIAN_POINT('',(9.5,0.,0.));
#588=CARTESIAN_POINT('',(-1.21430643318377E-14,225.867053947785,-8.84708972748172E-14));
#589=CARTESIAN_POINT('',(-1.21430643318377E-14,225.867053947785,-8.84708972748172E-14));
#590=CARTESIAN_POINT('',(-1.21430643318377E-14,225.867053947785,-9.50000000000009));
#591=CARTESIAN_POINT('',(-8.53031041796294E-15,190.267053947785,-6.03100902552001E-14));
#592=CARTESIAN_POINT('',(-8.53031041796294E-15,190.267053947785,-6.03100902552001E-14));
#593=CARTESIAN_POINT('',(-8.53031041796294E-15,190.267053947785,9.49999999999994));
#594=CARTESIAN_POINT('',(-1.36135873813335E-14,190.267053947785,-34.0000000000001));
#595=CARTESIAN_POINT('',(-7.93195631403881E-15,168.46823886556,-7.90763213100569));
#596=CARTESIAN_POINT('',(-7.7537589851497E-15,162.377393474938,-0.617117579374904));
#597=CARTESIAN_POINT('',(-1.01199819867459E-14,134.732342056119,-36.0922177490834));
#598=CARTESIAN_POINT('',(-4.37355250040465E-15,134.732342056118,-36.0922177490834));
#599=CARTESIAN_POINT('',(-4.37355250040465E-15,128.641496665496,-28.8017031974526));
#600=CARTESIAN_POINT('',(2.56534140350257E-15,112.933526973892,-9.99984988008902));
#601=CARTESIAN_POINT('',(-7.22543695480893E-15,91.1347118916667,-36.0922177490834));
#602=CARTESIAN_POINT('',(-7.22543695480893E-15,97.2255572822886,-28.8017031974526));
#603=CARTESIAN_POINT('',(-7.22543695480893E-15,91.1347118916667,-36.0922177490834));
#604=CARTESIAN_POINT('',(-1.61383001141694E-15,57.3988150822257,-7.90763213100565));
#605=CARTESIAN_POINT('',(-2.0537429500496E-15,63.4896604728476,-0.617117579374866));
#606=CARTESIAN_POINT('',(-5.08327696337056E-15,35.6,-34.));
#607=CARTESIAN_POINT('',(0.,35.6,0.));
#608=CARTESIAN_POINT('',(0.,35.6,9.5));
#609=CARTESIAN_POINT('',(0.,35.6,0.));
#610=MECHANICAL_DESIGN_GEOMETRIC_PRESENTATION_REPRESENTATION('',(#335),
#611);
#611=(
GEOMETRIC_REPRESENTATION_CONTEXT(3)
GLOBAL_UNCERTAINTY_ASSIGNED_CONTEXT((#612))
GLOBAL_UNIT_ASSIGNED_CONTEXT((#615,#614,#613))
REPRESENTATION_CONTEXT('F25DN22','TOP_LEVEL_ASSEMBLY_PART')
);
#612=UNCERTAINTY_MEASURE_WITH_UNIT(LENGTH_MEASURE(0.005),#615,
'DISTANCE_ACCURACY_VALUE','Maximum Tolerance applied to model');
#613=(
NAMED_UNIT(*)
SI_UNIT($,.STERADIAN.)
SOLID_ANGLE_UNIT()
);
#614=(
NAMED_UNIT(*)
PLANE_ANGLE_UNIT()
SI_UNIT($,.RADIAN.)
);
#615=(
LENGTH_UNIT()
NAMED_UNIT(*)
SI_UNIT(.MILLI.,.METRE.)
);
#616=PRODUCT_DEFINITION_SHAPE('','',#617);
#617=PRODUCT_DEFINITION('','',#619,#618);
#618=PRODUCT_DEFINITION_CONTEXT('',#625,'design');
#619=PRODUCT_DEFINITION_FORMATION_WITH_SPECIFIED_SOURCE('','',#621,
 .NOT_KNOWN.);
#620=PRODUCT_RELATED_PRODUCT_CATEGORY('','',(#621));
#621=PRODUCT('F25DN22','F25DN22','F25DN22',(#623));
#622=PRODUCT_CATEGORY('','');
#623=PRODUCT_CONTEXT('',#625,'mechanical');
#624=APPLICATION_PROTOCOL_DEFINITION('international standard',
'automotive_design',2010,#625);
#625=APPLICATION_CONTEXT(
'core data for automotive mechanical design processes');
ENDSEC;
END-ISO-10303-21;
