ISO-10303-21;
HEADER;
/* Generated by software containing ST-Developer
 * from STEP Tools, Inc. (www.steptools.com) 
 */
/* OPTION: strings as raw bytes, not using required /X/ escapes */

FILE_DESCRIPTION(
/* description */ ('Unknown'),
/* implementation_level */ '2;1');

FILE_NAME(
/* name */ 'F19DN18',
/* time_stamp */ '2019-10-25T10:38:12+02:00',
/* author */ ('Unknown'),
/* organization */ ('Unknown'),
/* preprocessor_version */ 'ST-DEVELOPER v16.7',
/* originating_system */ 'DEX',
/* authorisation */ $);

FILE_SCHEMA (('AUTOMOTIVE_DESIGN {1 0 10303 214 3 1 1}'));
ENDSEC;

DATA;
#10=PROPERTY_DEFINITION_REPRESENTATION(#14,#12);
#11=PROPERTY_DEFINITION_REPRESENTATION(#15,#13);
#12=REPRESENTATION('',(#16),#333);
#13=REPRESENTATION('',(#17),#333);
#14=PROPERTY_DEFINITION('pmi validation property','',#338);
#15=PROPERTY_DEFINITION('pmi validation property','',#338);
#16=VALUE_REPRESENTATION_ITEM('number of annotations',COUNT_MEASURE(0.));
#17=VALUE_REPRESENTATION_ITEM('number of views',COUNT_MEASURE(0.));
#18=SHAPE_REPRESENTATION_RELATIONSHIP('','',#199,#19);
#19=ADVANCED_BREP_SHAPE_REPRESENTATION('',(#197),#333);
#20=CYLINDRICAL_SURFACE('',#218,47.5);
#21=CYLINDRICAL_SURFACE('',#219,7.);
#22=CYLINDRICAL_SURFACE('',#220,7.);
#23=CYLINDRICAL_SURFACE('',#221,7.);
#24=CYLINDRICAL_SURFACE('',#222,7.);
#25=CYLINDRICAL_SURFACE('',#223,11.5);
#26=CYLINDRICAL_SURFACE('',#224,9.);
#27=CYLINDRICAL_SURFACE('',#228,8.25);
#28=ORIENTED_EDGE('',*,*,#60,.F.);
#29=ORIENTED_EDGE('',*,*,#61,.T.);
#30=ORIENTED_EDGE('',*,*,#62,.F.);
#31=ORIENTED_EDGE('',*,*,#63,.F.);
#32=ORIENTED_EDGE('',*,*,#64,.F.);
#33=ORIENTED_EDGE('',*,*,#65,.F.);
#34=ORIENTED_EDGE('',*,*,#66,.T.);
#35=ORIENTED_EDGE('',*,*,#67,.T.);
#36=ORIENTED_EDGE('',*,*,#68,.T.);
#37=ORIENTED_EDGE('',*,*,#69,.T.);
#38=ORIENTED_EDGE('',*,*,#70,.T.);
#39=ORIENTED_EDGE('',*,*,#71,.T.);
#40=ORIENTED_EDGE('',*,*,#72,.T.);
#41=ORIENTED_EDGE('',*,*,#73,.T.);
#42=ORIENTED_EDGE('',*,*,#66,.F.);
#43=ORIENTED_EDGE('',*,*,#73,.F.);
#44=ORIENTED_EDGE('',*,*,#65,.T.);
#45=ORIENTED_EDGE('',*,*,#71,.F.);
#46=ORIENTED_EDGE('',*,*,#69,.F.);
#47=ORIENTED_EDGE('',*,*,#63,.T.);
#48=ORIENTED_EDGE('',*,*,#70,.F.);
#49=ORIENTED_EDGE('',*,*,#62,.T.);
#50=ORIENTED_EDGE('',*,*,#72,.F.);
#51=ORIENTED_EDGE('',*,*,#64,.T.);
#52=ORIENTED_EDGE('',*,*,#60,.T.);
#53=ORIENTED_EDGE('',*,*,#68,.F.);
#54=ORIENTED_EDGE('',*,*,#74,.T.);
#55=ORIENTED_EDGE('',*,*,#61,.F.);
#56=ORIENTED_EDGE('',*,*,#75,.F.);
#57=ORIENTED_EDGE('',*,*,#74,.F.);
#58=ORIENTED_EDGE('',*,*,#67,.F.);
#59=ORIENTED_EDGE('',*,*,#75,.T.);
#60=EDGE_CURVE('',#76,#76,#92,.T.);
#61=EDGE_CURVE('',#77,#77,#93,.T.);
#62=EDGE_CURVE('',#78,#78,#94,.T.);
#63=EDGE_CURVE('',#79,#79,#95,.T.);
#64=EDGE_CURVE('',#80,#80,#96,.T.);
#65=EDGE_CURVE('',#81,#81,#97,.T.);
#66=EDGE_CURVE('',#82,#82,#98,.T.);
#67=EDGE_CURVE('',#83,#83,#99,.T.);
#68=EDGE_CURVE('',#84,#84,#100,.T.);
#69=EDGE_CURVE('',#85,#85,#101,.T.);
#70=EDGE_CURVE('',#86,#86,#102,.T.);
#71=EDGE_CURVE('',#87,#87,#103,.T.);
#72=EDGE_CURVE('',#88,#88,#104,.T.);
#73=EDGE_CURVE('',#89,#89,#105,.F.);
#74=EDGE_CURVE('',#90,#90,#106,.T.);
#75=EDGE_CURVE('',#91,#91,#107,.F.);
#76=VERTEX_POINT('',#290);
#77=VERTEX_POINT('',#292);
#78=VERTEX_POINT('',#295);
#79=VERTEX_POINT('',#297);
#80=VERTEX_POINT('',#299);
#81=VERTEX_POINT('',#301);
#82=VERTEX_POINT('',#303);
#83=VERTEX_POINT('',#305);
#84=VERTEX_POINT('',#308);
#85=VERTEX_POINT('',#310);
#86=VERTEX_POINT('',#312);
#87=VERTEX_POINT('',#314);
#88=VERTEX_POINT('',#316);
#89=VERTEX_POINT('',#318);
#90=VERTEX_POINT('',#327);
#91=VERTEX_POINT('',#330);
#92=CIRCLE('',#202,11.5);
#93=CIRCLE('',#203,9.);
#94=CIRCLE('',#205,7.);
#95=CIRCLE('',#206,7.);
#96=CIRCLE('',#207,7.);
#97=CIRCLE('',#208,7.);
#98=CIRCLE('',#209,47.5);
#99=CIRCLE('',#210,8.25);
#100=CIRCLE('',#212,11.5);
#101=CIRCLE('',#213,7.);
#102=CIRCLE('',#214,7.);
#103=CIRCLE('',#215,7.);
#104=CIRCLE('',#216,7.);
#105=CIRCLE('',#217,47.5);
#106=CIRCLE('',#225,9.);
#107=CIRCLE('',#227,8.25);
#108=EDGE_LOOP('',(#28));
#109=EDGE_LOOP('',(#29));
#110=EDGE_LOOP('',(#30));
#111=EDGE_LOOP('',(#31));
#112=EDGE_LOOP('',(#32));
#113=EDGE_LOOP('',(#33));
#114=EDGE_LOOP('',(#34));
#115=EDGE_LOOP('',(#35));
#116=EDGE_LOOP('',(#36));
#117=EDGE_LOOP('',(#37));
#118=EDGE_LOOP('',(#38));
#119=EDGE_LOOP('',(#39));
#120=EDGE_LOOP('',(#40));
#121=EDGE_LOOP('',(#41));
#122=EDGE_LOOP('',(#42));
#123=EDGE_LOOP('',(#43));
#124=EDGE_LOOP('',(#44));
#125=EDGE_LOOP('',(#45));
#126=EDGE_LOOP('',(#46));
#127=EDGE_LOOP('',(#47));
#128=EDGE_LOOP('',(#48));
#129=EDGE_LOOP('',(#49));
#130=EDGE_LOOP('',(#50));
#131=EDGE_LOOP('',(#51));
#132=EDGE_LOOP('',(#52));
#133=EDGE_LOOP('',(#53));
#134=EDGE_LOOP('',(#54));
#135=EDGE_LOOP('',(#55));
#136=EDGE_LOOP('',(#56));
#137=EDGE_LOOP('',(#57));
#138=EDGE_LOOP('',(#58));
#139=EDGE_LOOP('',(#59));
#140=FACE_BOUND('',#108,.T.);
#141=FACE_BOUND('',#109,.T.);
#142=FACE_BOUND('',#110,.T.);
#143=FACE_BOUND('',#111,.T.);
#144=FACE_BOUND('',#112,.T.);
#145=FACE_BOUND('',#113,.T.);
#146=FACE_BOUND('',#114,.T.);
#147=FACE_BOUND('',#115,.T.);
#148=FACE_BOUND('',#116,.T.);
#149=FACE_BOUND('',#117,.T.);
#150=FACE_BOUND('',#118,.T.);
#151=FACE_BOUND('',#119,.T.);
#152=FACE_BOUND('',#120,.T.);
#153=FACE_BOUND('',#121,.T.);
#154=FACE_BOUND('',#122,.T.);
#155=FACE_BOUND('',#123,.T.);
#156=FACE_BOUND('',#124,.T.);
#157=FACE_BOUND('',#125,.T.);
#158=FACE_BOUND('',#126,.T.);
#159=FACE_BOUND('',#127,.T.);
#160=FACE_BOUND('',#128,.T.);
#161=FACE_BOUND('',#129,.T.);
#162=FACE_BOUND('',#130,.T.);
#163=FACE_BOUND('',#131,.T.);
#164=FACE_BOUND('',#132,.T.);
#165=FACE_BOUND('',#133,.T.);
#166=FACE_BOUND('',#134,.T.);
#167=FACE_BOUND('',#135,.T.);
#168=FACE_BOUND('',#136,.T.);
#169=FACE_BOUND('',#137,.T.);
#170=FACE_BOUND('',#138,.T.);
#171=FACE_BOUND('',#139,.T.);
#172=PLANE('',#201);
#173=PLANE('',#204);
#174=PLANE('',#211);
#175=PLANE('',#226);
#176=ADVANCED_FACE('',(#140,#141),#172,.F.);
#177=ADVANCED_FACE('',(#142,#143,#144,#145,#146,#147),#173,.T.);
#178=ADVANCED_FACE('',(#148,#149,#150,#151,#152,#153),#174,.F.);
#179=ADVANCED_FACE('',(#154,#155),#20,.T.);
#180=ADVANCED_FACE('',(#156,#157),#21,.F.);
#181=ADVANCED_FACE('',(#158,#159),#22,.F.);
#182=ADVANCED_FACE('',(#160,#161),#23,.F.);
#183=ADVANCED_FACE('',(#162,#163),#24,.F.);
#184=ADVANCED_FACE('',(#164,#165),#25,.T.);
#185=ADVANCED_FACE('',(#166,#167),#26,.F.);
#186=ADVANCED_FACE('',(#168,#169),#175,.F.);
#187=ADVANCED_FACE('',(#170,#171),#27,.F.);
#188=CLOSED_SHELL('',(#176,#177,#178,#179,#180,#181,#182,#183,#184,#185,
#186,#187));
#189=STYLED_ITEM('',(#190),#197);
#190=PRESENTATION_STYLE_ASSIGNMENT((#191));
#191=SURFACE_STYLE_USAGE(.BOTH.,#192);
#192=SURFACE_SIDE_STYLE('',(#193));
#193=SURFACE_STYLE_FILL_AREA(#194);
#194=FILL_AREA_STYLE('',(#195));
#195=FILL_AREA_STYLE_COLOUR('',#196);
#196=COLOUR_RGB('',0.579999983310699,0.,0.829999983310699);
#197=MANIFOLD_SOLID_BREP('',#188);
#198=SHAPE_DEFINITION_REPRESENTATION(#338,#199);
#199=SHAPE_REPRESENTATION('F19DN18',(#200),#333);
#200=AXIS2_PLACEMENT_3D('',#287,#229,#230);
#201=AXIS2_PLACEMENT_3D('',#288,#231,#232);
#202=AXIS2_PLACEMENT_3D('',#289,#233,#234);
#203=AXIS2_PLACEMENT_3D('',#291,#235,#236);
#204=AXIS2_PLACEMENT_3D('',#293,#237,#238);
#205=AXIS2_PLACEMENT_3D('',#294,#239,#240);
#206=AXIS2_PLACEMENT_3D('',#296,#241,#242);
#207=AXIS2_PLACEMENT_3D('',#298,#243,#244);
#208=AXIS2_PLACEMENT_3D('',#300,#245,#246);
#209=AXIS2_PLACEMENT_3D('',#302,#247,#248);
#210=AXIS2_PLACEMENT_3D('',#304,#249,#250);
#211=AXIS2_PLACEMENT_3D('',#306,#251,#252);
#212=AXIS2_PLACEMENT_3D('',#307,#253,#254);
#213=AXIS2_PLACEMENT_3D('',#309,#255,#256);
#214=AXIS2_PLACEMENT_3D('',#311,#257,#258);
#215=AXIS2_PLACEMENT_3D('',#313,#259,#260);
#216=AXIS2_PLACEMENT_3D('',#315,#261,#262);
#217=AXIS2_PLACEMENT_3D('',#317,#263,#264);
#218=AXIS2_PLACEMENT_3D('',#319,#265,#266);
#219=AXIS2_PLACEMENT_3D('',#320,#267,#268);
#220=AXIS2_PLACEMENT_3D('',#321,#269,#270);
#221=AXIS2_PLACEMENT_3D('',#322,#271,#272);
#222=AXIS2_PLACEMENT_3D('',#323,#273,#274);
#223=AXIS2_PLACEMENT_3D('',#324,#275,#276);
#224=AXIS2_PLACEMENT_3D('',#325,#277,#278);
#225=AXIS2_PLACEMENT_3D('',#326,#279,#280);
#226=AXIS2_PLACEMENT_3D('',#328,#281,#282);
#227=AXIS2_PLACEMENT_3D('',#329,#283,#284);
#228=AXIS2_PLACEMENT_3D('',#331,#285,#286);
#229=DIRECTION('',(0.,0.,1.));
#230=DIRECTION('',(1.,0.,0.));
#231=DIRECTION('',(1.46081976924363E-16,-1.,0.));
#232=DIRECTION('',(1.,1.46081976924363E-16,0.));
#233=DIRECTION('',(1.46081976924363E-16,-1.,0.));
#234=DIRECTION('',(-1.,-1.46081976924363E-16,0.));
#235=DIRECTION('',(0.,-1.,0.));
#236=DIRECTION('',(-1.,0.,0.));
#237=DIRECTION('',(0.,-1.,0.));
#238=DIRECTION('',(0.,0.,-1.));
#239=DIRECTION('',(0.,-1.,0.));
#240=DIRECTION('',(0.,0.,-1.));
#241=DIRECTION('',(0.,-1.,0.));
#242=DIRECTION('',(0.,0.,-1.));
#243=DIRECTION('',(0.,-1.,0.));
#244=DIRECTION('',(0.,0.,-1.));
#245=DIRECTION('',(0.,-1.,0.));
#246=DIRECTION('',(0.,0.,-1.));
#247=DIRECTION('',(0.,-1.,0.));
#248=DIRECTION('',(0.,0.,-1.));
#249=DIRECTION('',(0.,1.,0.));
#250=DIRECTION('',(1.,0.,0.));
#251=DIRECTION('',(0.,-1.,0.));
#252=DIRECTION('',(0.,0.,-1.));
#253=DIRECTION('',(1.46081976924363E-16,-1.,0.));
#254=DIRECTION('',(-1.,-1.46081976924363E-16,0.));
#255=DIRECTION('',(0.,-1.,0.));
#256=DIRECTION('',(0.,0.,-1.));
#257=DIRECTION('',(0.,-1.,0.));
#258=DIRECTION('',(0.,0.,-1.));
#259=DIRECTION('',(0.,-1.,0.));
#260=DIRECTION('',(0.,0.,-1.));
#261=DIRECTION('',(0.,-1.,0.));
#262=DIRECTION('',(0.,0.,-1.));
#263=DIRECTION('',(0.,-1.,0.));
#264=DIRECTION('',(0.,0.,-1.));
#265=DIRECTION('',(0.,-1.,0.));
#266=DIRECTION('',(0.,0.,-1.));
#267=DIRECTION('',(0.,1.,0.));
#268=DIRECTION('',(0.,0.,1.));
#269=DIRECTION('',(0.,1.,0.));
#270=DIRECTION('',(0.,0.,1.));
#271=DIRECTION('',(0.,1.,0.));
#272=DIRECTION('',(0.,0.,1.));
#273=DIRECTION('',(0.,1.,0.));
#274=DIRECTION('',(0.,0.,1.));
#275=DIRECTION('',(0.,-1.,0.));
#276=DIRECTION('',(0.,0.,-1.));
#277=DIRECTION('',(-1.46081976924363E-16,1.,0.));
#278=DIRECTION('',(-1.,-1.46081976924363E-16,0.));
#279=DIRECTION('',(0.,-1.,0.));
#280=DIRECTION('',(-1.,0.,0.));
#281=DIRECTION('',(0.,-1.,0.));
#282=DIRECTION('',(0.,0.,-1.));
#283=DIRECTION('',(0.,-1.,0.));
#284=DIRECTION('',(0.,0.,-1.));
#285=DIRECTION('',(1.46081976924363E-16,-1.,0.));
#286=DIRECTION('',(1.,1.46081976924363E-16,0.));
#287=CARTESIAN_POINT('',(0.,0.,0.));
#288=CARTESIAN_POINT('',(0.,49.,0.));
#289=CARTESIAN_POINT('',(0.,49.,0.));
#290=CARTESIAN_POINT('',(-11.5,49.,0.));
#291=CARTESIAN_POINT('',(-4.52854128465524E-15,49.,0.));
#292=CARTESIAN_POINT('',(-9.00000000000001,49.,0.));
#293=CARTESIAN_POINT('',(0.,2.,0.));
#294=CARTESIAN_POINT('',(0.,2.,32.5));
#295=CARTESIAN_POINT('',(0.,2.,25.5));
#296=CARTESIAN_POINT('',(32.5,2.,-0.270319888902845));
#297=CARTESIAN_POINT('',(32.5,2.,-7.27031988890285));
#298=CARTESIAN_POINT('',(0.,2.,-32.5));
#299=CARTESIAN_POINT('',(0.,2.,-39.5));
#300=CARTESIAN_POINT('',(-32.5,2.,-0.270319888902845));
#301=CARTESIAN_POINT('',(-32.5,2.,-7.27031988890285));
#302=CARTESIAN_POINT('',(0.,2.,0.));
#303=CARTESIAN_POINT('',(0.,2.,-47.5));
#304=CARTESIAN_POINT('',(-2.92163953848725E-16,2.,0.));
#305=CARTESIAN_POINT('',(8.25,2.,0.));
#306=CARTESIAN_POINT('',(0.,16.,0.));
#307=CARTESIAN_POINT('',(0.,16.,0.));
#308=CARTESIAN_POINT('',(-11.5,16.,0.));
#309=CARTESIAN_POINT('',(32.5,16.,-0.270319888902845));
#310=CARTESIAN_POINT('',(32.5,16.,-7.27031988890285));
#311=CARTESIAN_POINT('',(0.,16.,32.5));
#312=CARTESIAN_POINT('',(0.,16.,25.5));
#313=CARTESIAN_POINT('',(-32.5,16.,-0.270319888902845));
#314=CARTESIAN_POINT('',(-32.5,16.,-7.27031988890285));
#315=CARTESIAN_POINT('',(0.,16.,-32.5));
#316=CARTESIAN_POINT('',(0.,16.,-39.5));
#317=CARTESIAN_POINT('',(0.,16.,0.));
#318=CARTESIAN_POINT('',(0.,16.,-47.5));
#319=CARTESIAN_POINT('',(0.,16.,0.));
#320=CARTESIAN_POINT('',(-32.5,-119.299667405356,-0.270319888902845));
#321=CARTESIAN_POINT('',(32.5,-119.299667405356,-0.270319888902845));
#322=CARTESIAN_POINT('',(0.,-119.299667405356,32.5));
#323=CARTESIAN_POINT('',(0.,-119.299667405356,-32.5));
#324=CARTESIAN_POINT('',(0.,37.,0.));
#325=CARTESIAN_POINT('',(-1.60690174616799E-15,27.,0.));
#326=CARTESIAN_POINT('',(-1.60690174616799E-15,29.,0.));
#327=CARTESIAN_POINT('',(-9.,29.,0.));
#328=CARTESIAN_POINT('',(-1.60690174616799E-15,29.,0.));
#329=CARTESIAN_POINT('',(-3.65204942310907E-15,29.,0.));
#330=CARTESIAN_POINT('',(-3.65204942310907E-15,29.,-8.25));
#331=CARTESIAN_POINT('',(-3.69165795751765E-14,254.711390908209,0.));
#332=MECHANICAL_DESIGN_GEOMETRIC_PRESENTATION_REPRESENTATION('',(#189),
#333);
#333=(
GEOMETRIC_REPRESENTATION_CONTEXT(3)
GLOBAL_UNCERTAINTY_ASSIGNED_CONTEXT((#334))
GLOBAL_UNIT_ASSIGNED_CONTEXT((#337,#336,#335))
REPRESENTATION_CONTEXT('F19DN18','TOP_LEVEL_ASSEMBLY_PART')
);
#334=UNCERTAINTY_MEASURE_WITH_UNIT(LENGTH_MEASURE(0.005),#337,
'DISTANCE_ACCURACY_VALUE','Maximum Tolerance applied to model');
#335=(
NAMED_UNIT(*)
SI_UNIT($,.STERADIAN.)
SOLID_ANGLE_UNIT()
);
#336=(
NAMED_UNIT(*)
PLANE_ANGLE_UNIT()
SI_UNIT($,.RADIAN.)
);
#337=(
LENGTH_UNIT()
NAMED_UNIT(*)
SI_UNIT(.MILLI.,.METRE.)
);
#338=PRODUCT_DEFINITION_SHAPE('','',#339);
#339=PRODUCT_DEFINITION('','',#341,#340);
#340=PRODUCT_DEFINITION_CONTEXT('',#347,'design');
#341=PRODUCT_DEFINITION_FORMATION_WITH_SPECIFIED_SOURCE('','',#343,
 .NOT_KNOWN.);
#342=PRODUCT_RELATED_PRODUCT_CATEGORY('','',(#343));
#343=PRODUCT('F19DN18','F19DN18','F19DN18',(#345));
#344=PRODUCT_CATEGORY('','');
#345=PRODUCT_CONTEXT('',#347,'mechanical');
#346=APPLICATION_PROTOCOL_DEFINITION('international standard',
'automotive_design',2010,#347);
#347=APPLICATION_CONTEXT(
'core data for automotive mechanical design processes');
ENDSEC;
END-ISO-10303-21;
