ISO-10303-21;
HEADER;
/* Generated by software containing ST-Developer
 * from STEP Tools, Inc. (www.steptools.com) 
 */
/* OPTION: strings as raw bytes, not using required /X/ escapes */

FILE_DESCRIPTION(
/* description */ ('Unknown'),
/* implementation_level */ '2;1');

FILE_NAME(
/* name */ 'F19DN76,1',
/* time_stamp */ '2019-10-25T10:36:06+02:00',
/* author */ ('Unknown'),
/* organization */ ('Unknown'),
/* preprocessor_version */ 'ST-DEVELOPER v16.7',
/* originating_system */ 'DEX',
/* authorisation */ $);

FILE_SCHEMA (('AUTOMOTIVE_DESIGN {1 0 10303 214 3 1 1}'));
ENDSEC;

DATA;
#10=PROPERTY_DEFINITION_REPRESENTATION(#14,#12);
#11=PROPERTY_DEFINITION_REPRESENTATION(#15,#13);
#12=REPRESENTATION('',(#16),#373);
#13=REPRESENTATION('',(#17),#373);
#14=PROPERTY_DEFINITION('pmi validation property','',#378);
#15=PROPERTY_DEFINITION('pmi validation property','',#378);
#16=VALUE_REPRESENTATION_ITEM('number of annotations',COUNT_MEASURE(0.));
#17=VALUE_REPRESENTATION_ITEM('number of views',COUNT_MEASURE(0.));
#18=SHAPE_REPRESENTATION_RELATIONSHIP('','',#221,#19);
#19=ADVANCED_BREP_SHAPE_REPRESENTATION('',(#219),#373);
#20=CONICAL_SURFACE('',#249,39.,0.785398163397448);
#21=CYLINDRICAL_SURFACE('',#240,92.5);
#22=CYLINDRICAL_SURFACE('',#241,9.);
#23=CYLINDRICAL_SURFACE('',#242,9.);
#24=CYLINDRICAL_SURFACE('',#243,9.);
#25=CYLINDRICAL_SURFACE('',#244,9.);
#26=CYLINDRICAL_SURFACE('',#245,39.);
#27=CYLINDRICAL_SURFACE('',#247,40.5);
#28=CYLINDRICAL_SURFACE('',#250,38.);
#29=CYLINDRICAL_SURFACE('',#254,36.05);
#30=ORIENTED_EDGE('',*,*,#66,.F.);
#31=ORIENTED_EDGE('',*,*,#67,.F.);
#32=ORIENTED_EDGE('',*,*,#68,.F.);
#33=ORIENTED_EDGE('',*,*,#69,.F.);
#34=ORIENTED_EDGE('',*,*,#70,.T.);
#35=ORIENTED_EDGE('',*,*,#71,.T.);
#36=ORIENTED_EDGE('',*,*,#72,.F.);
#37=ORIENTED_EDGE('',*,*,#73,.T.);
#38=ORIENTED_EDGE('',*,*,#74,.F.);
#39=ORIENTED_EDGE('',*,*,#75,.T.);
#40=ORIENTED_EDGE('',*,*,#76,.T.);
#41=ORIENTED_EDGE('',*,*,#77,.T.);
#42=ORIENTED_EDGE('',*,*,#78,.T.);
#43=ORIENTED_EDGE('',*,*,#79,.F.);
#44=ORIENTED_EDGE('',*,*,#74,.T.);
#45=ORIENTED_EDGE('',*,*,#70,.F.);
#46=ORIENTED_EDGE('',*,*,#75,.F.);
#47=ORIENTED_EDGE('',*,*,#69,.T.);
#48=ORIENTED_EDGE('',*,*,#76,.F.);
#49=ORIENTED_EDGE('',*,*,#68,.T.);
#50=ORIENTED_EDGE('',*,*,#77,.F.);
#51=ORIENTED_EDGE('',*,*,#67,.T.);
#52=ORIENTED_EDGE('',*,*,#78,.F.);
#53=ORIENTED_EDGE('',*,*,#66,.T.);
#54=ORIENTED_EDGE('',*,*,#80,.T.);
#55=ORIENTED_EDGE('',*,*,#79,.T.);
#56=ORIENTED_EDGE('',*,*,#81,.T.);
#57=ORIENTED_EDGE('',*,*,#72,.T.);
#58=ORIENTED_EDGE('',*,*,#81,.F.);
#59=ORIENTED_EDGE('',*,*,#80,.F.);
#60=ORIENTED_EDGE('',*,*,#82,.T.);
#61=ORIENTED_EDGE('',*,*,#73,.F.);
#62=ORIENTED_EDGE('',*,*,#83,.F.);
#63=ORIENTED_EDGE('',*,*,#82,.F.);
#64=ORIENTED_EDGE('',*,*,#71,.F.);
#65=ORIENTED_EDGE('',*,*,#83,.T.);
#66=EDGE_CURVE('',#84,#84,#102,.T.);
#67=EDGE_CURVE('',#85,#85,#103,.T.);
#68=EDGE_CURVE('',#86,#86,#104,.T.);
#69=EDGE_CURVE('',#87,#87,#105,.T.);
#70=EDGE_CURVE('',#88,#88,#106,.T.);
#71=EDGE_CURVE('',#89,#89,#107,.T.);
#72=EDGE_CURVE('',#90,#90,#108,.T.);
#73=EDGE_CURVE('',#91,#91,#109,.T.);
#74=EDGE_CURVE('',#92,#92,#110,.T.);
#75=EDGE_CURVE('',#93,#93,#111,.T.);
#76=EDGE_CURVE('',#94,#94,#112,.T.);
#77=EDGE_CURVE('',#95,#95,#113,.T.);
#78=EDGE_CURVE('',#96,#96,#114,.T.);
#79=EDGE_CURVE('',#97,#97,#115,.F.);
#80=EDGE_CURVE('',#98,#98,#116,.T.);
#81=EDGE_CURVE('',#99,#99,#117,.F.);
#82=EDGE_CURVE('',#100,#100,#118,.T.);
#83=EDGE_CURVE('',#101,#101,#119,.F.);
#84=VERTEX_POINT('',#324);
#85=VERTEX_POINT('',#326);
#86=VERTEX_POINT('',#328);
#87=VERTEX_POINT('',#330);
#88=VERTEX_POINT('',#332);
#89=VERTEX_POINT('',#334);
#90=VERTEX_POINT('',#337);
#91=VERTEX_POINT('',#339);
#92=VERTEX_POINT('',#342);
#93=VERTEX_POINT('',#344);
#94=VERTEX_POINT('',#346);
#95=VERTEX_POINT('',#348);
#96=VERTEX_POINT('',#350);
#97=VERTEX_POINT('',#352);
#98=VERTEX_POINT('',#360);
#99=VERTEX_POINT('',#363);
#100=VERTEX_POINT('',#367);
#101=VERTEX_POINT('',#370);
#102=CIRCLE('',#224,9.);
#103=CIRCLE('',#225,9.);
#104=CIRCLE('',#226,9.);
#105=CIRCLE('',#227,9.);
#106=CIRCLE('',#228,92.5);
#107=CIRCLE('',#229,36.05);
#108=CIRCLE('',#231,40.5);
#109=CIRCLE('',#232,38.);
#110=CIRCLE('',#234,92.5);
#111=CIRCLE('',#235,9.);
#112=CIRCLE('',#236,9.);
#113=CIRCLE('',#237,9.);
#114=CIRCLE('',#238,9.);
#115=CIRCLE('',#239,39.);
#116=CIRCLE('',#246,39.);
#117=CIRCLE('',#248,40.5);
#118=CIRCLE('',#251,38.);
#119=CIRCLE('',#253,36.05);
#120=EDGE_LOOP('',(#30));
#121=EDGE_LOOP('',(#31));
#122=EDGE_LOOP('',(#32));
#123=EDGE_LOOP('',(#33));
#124=EDGE_LOOP('',(#34));
#125=EDGE_LOOP('',(#35));
#126=EDGE_LOOP('',(#36));
#127=EDGE_LOOP('',(#37));
#128=EDGE_LOOP('',(#38));
#129=EDGE_LOOP('',(#39));
#130=EDGE_LOOP('',(#40));
#131=EDGE_LOOP('',(#41));
#132=EDGE_LOOP('',(#42));
#133=EDGE_LOOP('',(#43));
#134=EDGE_LOOP('',(#44));
#135=EDGE_LOOP('',(#45));
#136=EDGE_LOOP('',(#46));
#137=EDGE_LOOP('',(#47));
#138=EDGE_LOOP('',(#48));
#139=EDGE_LOOP('',(#49));
#140=EDGE_LOOP('',(#50));
#141=EDGE_LOOP('',(#51));
#142=EDGE_LOOP('',(#52));
#143=EDGE_LOOP('',(#53));
#144=EDGE_LOOP('',(#54));
#145=EDGE_LOOP('',(#55));
#146=EDGE_LOOP('',(#56));
#147=EDGE_LOOP('',(#57));
#148=EDGE_LOOP('',(#58));
#149=EDGE_LOOP('',(#59));
#150=EDGE_LOOP('',(#60));
#151=EDGE_LOOP('',(#61));
#152=EDGE_LOOP('',(#62));
#153=EDGE_LOOP('',(#63));
#154=EDGE_LOOP('',(#64));
#155=EDGE_LOOP('',(#65));
#156=FACE_BOUND('',#120,.T.);
#157=FACE_BOUND('',#121,.T.);
#158=FACE_BOUND('',#122,.T.);
#159=FACE_BOUND('',#123,.T.);
#160=FACE_BOUND('',#124,.T.);
#161=FACE_BOUND('',#125,.T.);
#162=FACE_BOUND('',#126,.T.);
#163=FACE_BOUND('',#127,.T.);
#164=FACE_BOUND('',#128,.T.);
#165=FACE_BOUND('',#129,.T.);
#166=FACE_BOUND('',#130,.T.);
#167=FACE_BOUND('',#131,.T.);
#168=FACE_BOUND('',#132,.T.);
#169=FACE_BOUND('',#133,.T.);
#170=FACE_BOUND('',#134,.T.);
#171=FACE_BOUND('',#135,.T.);
#172=FACE_BOUND('',#136,.T.);
#173=FACE_BOUND('',#137,.T.);
#174=FACE_BOUND('',#138,.T.);
#175=FACE_BOUND('',#139,.T.);
#176=FACE_BOUND('',#140,.T.);
#177=FACE_BOUND('',#141,.T.);
#178=FACE_BOUND('',#142,.T.);
#179=FACE_BOUND('',#143,.T.);
#180=FACE_BOUND('',#144,.T.);
#181=FACE_BOUND('',#145,.T.);
#182=FACE_BOUND('',#146,.T.);
#183=FACE_BOUND('',#147,.T.);
#184=FACE_BOUND('',#148,.T.);
#185=FACE_BOUND('',#149,.T.);
#186=FACE_BOUND('',#150,.T.);
#187=FACE_BOUND('',#151,.T.);
#188=FACE_BOUND('',#152,.T.);
#189=FACE_BOUND('',#153,.T.);
#190=FACE_BOUND('',#154,.T.);
#191=FACE_BOUND('',#155,.T.);
#192=PLANE('',#223);
#193=PLANE('',#230);
#194=PLANE('',#233);
#195=PLANE('',#252);
#196=ADVANCED_FACE('',(#156,#157,#158,#159,#160,#161),#192,.T.);
#197=ADVANCED_FACE('',(#162,#163),#193,.T.);
#198=ADVANCED_FACE('',(#164,#165,#166,#167,#168,#169),#194,.F.);
#199=ADVANCED_FACE('',(#170,#171),#21,.T.);
#200=ADVANCED_FACE('',(#172,#173),#22,.F.);
#201=ADVANCED_FACE('',(#174,#175),#23,.F.);
#202=ADVANCED_FACE('',(#176,#177),#24,.F.);
#203=ADVANCED_FACE('',(#178,#179),#25,.F.);
#204=ADVANCED_FACE('',(#180,#181),#26,.T.);
#205=ADVANCED_FACE('',(#182,#183),#27,.T.);
#206=ADVANCED_FACE('',(#184,#185),#20,.T.);
#207=ADVANCED_FACE('',(#186,#187),#28,.F.);
#208=ADVANCED_FACE('',(#188,#189),#195,.F.);
#209=ADVANCED_FACE('',(#190,#191),#29,.F.);
#210=CLOSED_SHELL('',(#196,#197,#198,#199,#200,#201,#202,#203,#204,#205,
#206,#207,#208,#209));
#211=STYLED_ITEM('',(#212),#219);
#212=PRESENTATION_STYLE_ASSIGNMENT((#213));
#213=SURFACE_STYLE_USAGE(.BOTH.,#214);
#214=SURFACE_SIDE_STYLE('',(#215));
#215=SURFACE_STYLE_FILL_AREA(#216);
#216=FILL_AREA_STYLE('',(#217));
#217=FILL_AREA_STYLE_COLOUR('',#218);
#218=COLOUR_RGB('',0.,0.752941310405731,0.800000011920929);
#219=MANIFOLD_SOLID_BREP('',#210);
#220=SHAPE_DEFINITION_REPRESENTATION(#378,#221);
#221=SHAPE_REPRESENTATION('F19DN76,1',(#222),#373);
#222=AXIS2_PLACEMENT_3D('',#321,#255,#256);
#223=AXIS2_PLACEMENT_3D('',#322,#257,#258);
#224=AXIS2_PLACEMENT_3D('',#323,#259,#260);
#225=AXIS2_PLACEMENT_3D('',#325,#261,#262);
#226=AXIS2_PLACEMENT_3D('',#327,#263,#264);
#227=AXIS2_PLACEMENT_3D('',#329,#265,#266);
#228=AXIS2_PLACEMENT_3D('',#331,#267,#268);
#229=AXIS2_PLACEMENT_3D('',#333,#269,#270);
#230=AXIS2_PLACEMENT_3D('',#335,#271,#272);
#231=AXIS2_PLACEMENT_3D('',#336,#273,#274);
#232=AXIS2_PLACEMENT_3D('',#338,#275,#276);
#233=AXIS2_PLACEMENT_3D('',#340,#277,#278);
#234=AXIS2_PLACEMENT_3D('',#341,#279,#280);
#235=AXIS2_PLACEMENT_3D('',#343,#281,#282);
#236=AXIS2_PLACEMENT_3D('',#345,#283,#284);
#237=AXIS2_PLACEMENT_3D('',#347,#285,#286);
#238=AXIS2_PLACEMENT_3D('',#349,#287,#288);
#239=AXIS2_PLACEMENT_3D('',#351,#289,#290);
#240=AXIS2_PLACEMENT_3D('',#353,#291,#292);
#241=AXIS2_PLACEMENT_3D('',#354,#293,#294);
#242=AXIS2_PLACEMENT_3D('',#355,#295,#296);
#243=AXIS2_PLACEMENT_3D('',#356,#297,#298);
#244=AXIS2_PLACEMENT_3D('',#357,#299,#300);
#245=AXIS2_PLACEMENT_3D('',#358,#301,#302);
#246=AXIS2_PLACEMENT_3D('',#359,#303,#304);
#247=AXIS2_PLACEMENT_3D('',#361,#305,#306);
#248=AXIS2_PLACEMENT_3D('',#362,#307,#308);
#249=AXIS2_PLACEMENT_3D('',#364,#309,#310);
#250=AXIS2_PLACEMENT_3D('',#365,#311,#312);
#251=AXIS2_PLACEMENT_3D('',#366,#313,#314);
#252=AXIS2_PLACEMENT_3D('',#368,#315,#316);
#253=AXIS2_PLACEMENT_3D('',#369,#317,#318);
#254=AXIS2_PLACEMENT_3D('',#371,#319,#320);
#255=DIRECTION('',(0.,0.,1.));
#256=DIRECTION('',(1.,0.,0.));
#257=DIRECTION('',(0.,-1.,0.));
#258=DIRECTION('',(0.,0.,-1.));
#259=DIRECTION('',(0.,-1.,0.));
#260=DIRECTION('',(1.,0.,0.));
#261=DIRECTION('',(0.,-1.,0.));
#262=DIRECTION('',(1.,0.,0.));
#263=DIRECTION('',(0.,-1.,0.));
#264=DIRECTION('',(1.,0.,0.));
#265=DIRECTION('',(0.,-1.,0.));
#266=DIRECTION('',(1.,0.,0.));
#267=DIRECTION('',(0.,-1.,0.));
#268=DIRECTION('',(1.,0.,0.));
#269=DIRECTION('',(0.,1.,0.));
#270=DIRECTION('',(1.,0.,0.));
#271=DIRECTION('',(0.,1.,0.));
#272=DIRECTION('',(0.,0.,1.));
#273=DIRECTION('',(0.,-1.,0.));
#274=DIRECTION('',(-1.,0.,0.));
#275=DIRECTION('',(0.,-1.,0.));
#276=DIRECTION('',(-1.,0.,0.));
#277=DIRECTION('',(0.,-1.,0.));
#278=DIRECTION('',(0.,0.,-1.));
#279=DIRECTION('',(0.,-1.,0.));
#280=DIRECTION('',(1.,0.,0.));
#281=DIRECTION('',(0.,-1.,0.));
#282=DIRECTION('',(0.,0.,-1.));
#283=DIRECTION('',(0.,-1.,0.));
#284=DIRECTION('',(0.,0.,-1.));
#285=DIRECTION('',(0.,-1.,0.));
#286=DIRECTION('',(0.,0.,-1.));
#287=DIRECTION('',(0.,-1.,0.));
#288=DIRECTION('',(0.,0.,-1.));
#289=DIRECTION('',(0.,-1.,0.));
#290=DIRECTION('',(0.,0.,-1.));
#291=DIRECTION('',(0.,-1.,0.));
#292=DIRECTION('',(0.,0.,-1.));
#293=DIRECTION('',(0.,-1.,0.));
#294=DIRECTION('',(0.,0.,-1.));
#295=DIRECTION('',(0.,-1.,0.));
#296=DIRECTION('',(0.,0.,-1.));
#297=DIRECTION('',(0.,-1.,0.));
#298=DIRECTION('',(0.,0.,-1.));
#299=DIRECTION('',(0.,-1.,0.));
#300=DIRECTION('',(0.,0.,-1.));
#301=DIRECTION('',(0.,-1.,0.));
#302=DIRECTION('',(0.,0.,-1.));
#303=DIRECTION('',(0.,-1.,0.));
#304=DIRECTION('',(0.,0.,-1.));
#305=DIRECTION('',(0.,1.,0.));
#306=DIRECTION('',(0.,0.,1.));
#307=DIRECTION('',(0.,-1.,0.));
#308=DIRECTION('',(0.,0.,-1.));
#309=DIRECTION('',(0.,1.,0.));
#310=DIRECTION('',(0.,0.,1.));
#311=DIRECTION('',(0.,1.,0.));
#312=DIRECTION('',(0.,0.,1.));
#313=DIRECTION('',(0.,-1.,0.));
#314=DIRECTION('',(-1.,0.,0.));
#315=DIRECTION('',(0.,-1.,0.));
#316=DIRECTION('',(0.,0.,-1.));
#317=DIRECTION('',(0.,-1.,0.));
#318=DIRECTION('',(0.,0.,-1.));
#319=DIRECTION('',(0.,-1.,0.));
#320=DIRECTION('',(0.,0.,-1.));
#321=CARTESIAN_POINT('',(0.,0.,0.));
#322=CARTESIAN_POINT('',(0.,0.,0.));
#323=CARTESIAN_POINT('',(72.5,0.,0.));
#324=CARTESIAN_POINT('',(81.5,0.,0.));
#325=CARTESIAN_POINT('',(-72.5,0.,0.));
#326=CARTESIAN_POINT('',(-63.5,0.,0.));
#327=CARTESIAN_POINT('',(0.,0.,-72.5));
#328=CARTESIAN_POINT('',(9.,0.,-72.5));
#329=CARTESIAN_POINT('',(0.,0.,72.5));
#330=CARTESIAN_POINT('',(9.,0.,72.5));
#331=CARTESIAN_POINT('',(0.,0.,0.));
#332=CARTESIAN_POINT('',(92.5,0.,0.));
#333=CARTESIAN_POINT('',(0.,0.,0.));
#334=CARTESIAN_POINT('',(36.05,0.,0.));
#335=CARTESIAN_POINT('',(0.,132.,0.));
#336=CARTESIAN_POINT('',(0.,132.,0.));
#337=CARTESIAN_POINT('',(-40.5,132.,0.));
#338=CARTESIAN_POINT('',(0.,132.,0.));
#339=CARTESIAN_POINT('',(-38.,132.,0.));
#340=CARTESIAN_POINT('',(0.,20.,0.));
#341=CARTESIAN_POINT('',(0.,20.,0.));
#342=CARTESIAN_POINT('',(92.5,20.,0.));
#343=CARTESIAN_POINT('',(0.,20.,72.5));
#344=CARTESIAN_POINT('',(0.,20.,63.5));
#345=CARTESIAN_POINT('',(0.,20.,-72.5));
#346=CARTESIAN_POINT('',(0.,20.,-81.5));
#347=CARTESIAN_POINT('',(-72.5,20.,0.));
#348=CARTESIAN_POINT('',(-72.5,20.,-9.));
#349=CARTESIAN_POINT('',(72.5,20.,0.));
#350=CARTESIAN_POINT('',(72.5,20.,-9.));
#351=CARTESIAN_POINT('',(0.,20.,0.));
#352=CARTESIAN_POINT('',(0.,20.,-39.));
#353=CARTESIAN_POINT('',(0.,18.,0.));
#354=CARTESIAN_POINT('',(0.,262.318508687435,72.5));
#355=CARTESIAN_POINT('',(0.,262.318508687435,-72.5));
#356=CARTESIAN_POINT('',(-72.5,262.318508687435,0.));
#357=CARTESIAN_POINT('',(72.5,262.318508687435,0.));
#358=CARTESIAN_POINT('',(0.,114.,0.));
#359=CARTESIAN_POINT('',(0.,76.,0.));
#360=CARTESIAN_POINT('',(0.,76.,-39.));
#361=CARTESIAN_POINT('',(0.,58.2,0.));
#362=CARTESIAN_POINT('',(0.,77.5,0.));
#363=CARTESIAN_POINT('',(0.,77.5,-40.5));
#364=CARTESIAN_POINT('',(0.,76.,0.));
#365=CARTESIAN_POINT('',(0.,60.2,0.));
#366=CARTESIAN_POINT('',(0.,78.,0.));
#367=CARTESIAN_POINT('',(-38.,78.,0.));
#368=CARTESIAN_POINT('',(0.,78.,0.));
#369=CARTESIAN_POINT('',(0.,78.,0.));
#370=CARTESIAN_POINT('',(0.,78.,-36.05));
#371=CARTESIAN_POINT('',(0.,189.007058733692,0.));
#372=MECHANICAL_DESIGN_GEOMETRIC_PRESENTATION_REPRESENTATION('',(#211),
#373);
#373=(
GEOMETRIC_REPRESENTATION_CONTEXT(3)
GLOBAL_UNCERTAINTY_ASSIGNED_CONTEXT((#374))
GLOBAL_UNIT_ASSIGNED_CONTEXT((#377,#376,#375))
REPRESENTATION_CONTEXT('F19DN76,1','TOP_LEVEL_ASSEMBLY_PART')
);
#374=UNCERTAINTY_MEASURE_WITH_UNIT(LENGTH_MEASURE(0.005),#377,
'DISTANCE_ACCURACY_VALUE','Maximum Tolerance applied to model');
#375=(
NAMED_UNIT(*)
SI_UNIT($,.STERADIAN.)
SOLID_ANGLE_UNIT()
);
#376=(
NAMED_UNIT(*)
PLANE_ANGLE_UNIT()
SI_UNIT($,.RADIAN.)
);
#377=(
LENGTH_UNIT()
NAMED_UNIT(*)
SI_UNIT(.MILLI.,.METRE.)
);
#378=PRODUCT_DEFINITION_SHAPE('','',#379);
#379=PRODUCT_DEFINITION('','',#381,#380);
#380=PRODUCT_DEFINITION_CONTEXT('',#387,'design');
#381=PRODUCT_DEFINITION_FORMATION_WITH_SPECIFIED_SOURCE('','',#383,
 .NOT_KNOWN.);
#382=PRODUCT_RELATED_PRODUCT_CATEGORY('','',(#383));
#383=PRODUCT('F19DN76,1','F19DN76,1','F19DN76,1',(#385));
#384=PRODUCT_CATEGORY('','');
#385=PRODUCT_CONTEXT('',#387,'mechanical');
#386=APPLICATION_PROTOCOL_DEFINITION('international standard',
'automotive_design',2010,#387);
#387=APPLICATION_CONTEXT(
'core data for automotive mechanical design processes');
ENDSEC;
END-ISO-10303-21;
