ISO-10303-21;
HEADER;
/* Generated by software containing ST-Developer
 * from STEP Tools, Inc. (www.steptools.com) 
 */
/* OPTION: strings as raw bytes, not using required /X/ escapes */

FILE_DESCRIPTION(
/* description */ ('Unknown'),
/* implementation_level */ '2;1');

FILE_NAME(
/* name */ 'F19DN88,9',
/* time_stamp */ '2019-10-25T10:35:38+02:00',
/* author */ ('Unknown'),
/* organization */ ('Unknown'),
/* preprocessor_version */ 'ST-DEVELOPER v16.7',
/* originating_system */ 'DEX',
/* authorisation */ $);

FILE_SCHEMA (('AUTOMOTIVE_DESIGN {1 0 10303 214 3 1 1}'));
ENDSEC;

DATA;
#10=PROPERTY_DEFINITION_REPRESENTATION(#14,#12);
#11=PROPERTY_DEFINITION_REPRESENTATION(#15,#13);
#12=REPRESENTATION('',(#16),#509);
#13=REPRESENTATION('',(#17),#509);
#14=PROPERTY_DEFINITION('pmi validation property','',#514);
#15=PROPERTY_DEFINITION('pmi validation property','',#514);
#16=VALUE_REPRESENTATION_ITEM('number of annotations',COUNT_MEASURE(0.));
#17=VALUE_REPRESENTATION_ITEM('number of views',COUNT_MEASURE(0.));
#18=SHAPE_REPRESENTATION_RELATIONSHIP('','',#301,#19);
#19=ADVANCED_BREP_SHAPE_REPRESENTATION('',(#299),#509);
#20=CONICAL_SURFACE('',#337,39.,0.785398163397448);
#21=CYLINDRICAL_SURFACE('',#328,100.);
#22=CYLINDRICAL_SURFACE('',#329,9.);
#23=CYLINDRICAL_SURFACE('',#330,9.);
#24=CYLINDRICAL_SURFACE('',#331,9.);
#25=CYLINDRICAL_SURFACE('',#332,9.);
#26=CYLINDRICAL_SURFACE('',#333,45.);
#27=CYLINDRICAL_SURFACE('',#335,47.);
#28=CYLINDRICAL_SURFACE('',#338,44.5);
#29=CYLINDRICAL_SURFACE('',#342,9.);
#30=CYLINDRICAL_SURFACE('',#343,9.);
#31=CYLINDRICAL_SURFACE('',#344,9.);
#32=CYLINDRICAL_SURFACE('',#345,9.);
#33=CYLINDRICAL_SURFACE('',#346,42.45);
#34=ORIENTED_EDGE('',*,*,#86,.F.);
#35=ORIENTED_EDGE('',*,*,#87,.F.);
#36=ORIENTED_EDGE('',*,*,#88,.F.);
#37=ORIENTED_EDGE('',*,*,#89,.F.);
#38=ORIENTED_EDGE('',*,*,#90,.F.);
#39=ORIENTED_EDGE('',*,*,#91,.F.);
#40=ORIENTED_EDGE('',*,*,#92,.F.);
#41=ORIENTED_EDGE('',*,*,#93,.F.);
#42=ORIENTED_EDGE('',*,*,#94,.T.);
#43=ORIENTED_EDGE('',*,*,#95,.T.);
#44=ORIENTED_EDGE('',*,*,#96,.F.);
#45=ORIENTED_EDGE('',*,*,#97,.T.);
#46=ORIENTED_EDGE('',*,*,#98,.T.);
#47=ORIENTED_EDGE('',*,*,#99,.T.);
#48=ORIENTED_EDGE('',*,*,#100,.T.);
#49=ORIENTED_EDGE('',*,*,#101,.T.);
#50=ORIENTED_EDGE('',*,*,#102,.F.);
#51=ORIENTED_EDGE('',*,*,#103,.T.);
#52=ORIENTED_EDGE('',*,*,#104,.T.);
#53=ORIENTED_EDGE('',*,*,#105,.T.);
#54=ORIENTED_EDGE('',*,*,#106,.T.);
#55=ORIENTED_EDGE('',*,*,#107,.F.);
#56=ORIENTED_EDGE('',*,*,#102,.T.);
#57=ORIENTED_EDGE('',*,*,#94,.F.);
#58=ORIENTED_EDGE('',*,*,#103,.F.);
#59=ORIENTED_EDGE('',*,*,#93,.T.);
#60=ORIENTED_EDGE('',*,*,#104,.F.);
#61=ORIENTED_EDGE('',*,*,#92,.T.);
#62=ORIENTED_EDGE('',*,*,#105,.F.);
#63=ORIENTED_EDGE('',*,*,#91,.T.);
#64=ORIENTED_EDGE('',*,*,#106,.F.);
#65=ORIENTED_EDGE('',*,*,#90,.T.);
#66=ORIENTED_EDGE('',*,*,#108,.T.);
#67=ORIENTED_EDGE('',*,*,#107,.T.);
#68=ORIENTED_EDGE('',*,*,#109,.T.);
#69=ORIENTED_EDGE('',*,*,#96,.T.);
#70=ORIENTED_EDGE('',*,*,#109,.F.);
#71=ORIENTED_EDGE('',*,*,#108,.F.);
#72=ORIENTED_EDGE('',*,*,#110,.T.);
#73=ORIENTED_EDGE('',*,*,#97,.F.);
#74=ORIENTED_EDGE('',*,*,#111,.F.);
#75=ORIENTED_EDGE('',*,*,#110,.F.);
#76=ORIENTED_EDGE('',*,*,#101,.F.);
#77=ORIENTED_EDGE('',*,*,#89,.T.);
#78=ORIENTED_EDGE('',*,*,#100,.F.);
#79=ORIENTED_EDGE('',*,*,#88,.T.);
#80=ORIENTED_EDGE('',*,*,#99,.F.);
#81=ORIENTED_EDGE('',*,*,#87,.T.);
#82=ORIENTED_EDGE('',*,*,#98,.F.);
#83=ORIENTED_EDGE('',*,*,#86,.T.);
#84=ORIENTED_EDGE('',*,*,#95,.F.);
#85=ORIENTED_EDGE('',*,*,#111,.T.);
#86=EDGE_CURVE('',#112,#112,#138,.T.);
#87=EDGE_CURVE('',#113,#113,#139,.T.);
#88=EDGE_CURVE('',#114,#114,#140,.T.);
#89=EDGE_CURVE('',#115,#115,#141,.T.);
#90=EDGE_CURVE('',#116,#116,#142,.T.);
#91=EDGE_CURVE('',#117,#117,#143,.T.);
#92=EDGE_CURVE('',#118,#118,#144,.T.);
#93=EDGE_CURVE('',#119,#119,#145,.T.);
#94=EDGE_CURVE('',#120,#120,#146,.T.);
#95=EDGE_CURVE('',#121,#121,#147,.T.);
#96=EDGE_CURVE('',#122,#122,#148,.F.);
#97=EDGE_CURVE('',#123,#123,#149,.F.);
#98=EDGE_CURVE('',#124,#124,#150,.T.);
#99=EDGE_CURVE('',#125,#125,#151,.T.);
#100=EDGE_CURVE('',#126,#126,#152,.T.);
#101=EDGE_CURVE('',#127,#127,#153,.T.);
#102=EDGE_CURVE('',#128,#128,#154,.T.);
#103=EDGE_CURVE('',#129,#129,#155,.T.);
#104=EDGE_CURVE('',#130,#130,#156,.T.);
#105=EDGE_CURVE('',#131,#131,#157,.T.);
#106=EDGE_CURVE('',#132,#132,#158,.T.);
#107=EDGE_CURVE('',#133,#133,#159,.F.);
#108=EDGE_CURVE('',#134,#134,#160,.F.);
#109=EDGE_CURVE('',#135,#135,#161,.T.);
#110=EDGE_CURVE('',#136,#136,#162,.T.);
#111=EDGE_CURVE('',#137,#137,#163,.F.);
#112=VERTEX_POINT('',#440);
#113=VERTEX_POINT('',#442);
#114=VERTEX_POINT('',#444);
#115=VERTEX_POINT('',#446);
#116=VERTEX_POINT('',#448);
#117=VERTEX_POINT('',#450);
#118=VERTEX_POINT('',#452);
#119=VERTEX_POINT('',#454);
#120=VERTEX_POINT('',#456);
#121=VERTEX_POINT('',#458);
#122=VERTEX_POINT('',#461);
#123=VERTEX_POINT('',#463);
#124=VERTEX_POINT('',#466);
#125=VERTEX_POINT('',#468);
#126=VERTEX_POINT('',#470);
#127=VERTEX_POINT('',#472);
#128=VERTEX_POINT('',#474);
#129=VERTEX_POINT('',#476);
#130=VERTEX_POINT('',#478);
#131=VERTEX_POINT('',#480);
#132=VERTEX_POINT('',#482);
#133=VERTEX_POINT('',#484);
#134=VERTEX_POINT('',#492);
#135=VERTEX_POINT('',#495);
#136=VERTEX_POINT('',#499);
#137=VERTEX_POINT('',#502);
#138=CIRCLE('',#304,9.);
#139=CIRCLE('',#305,9.);
#140=CIRCLE('',#306,9.);
#141=CIRCLE('',#307,9.);
#142=CIRCLE('',#308,9.);
#143=CIRCLE('',#309,9.);
#144=CIRCLE('',#310,9.);
#145=CIRCLE('',#311,9.);
#146=CIRCLE('',#312,100.);
#147=CIRCLE('',#313,42.45);
#148=CIRCLE('',#315,47.);
#149=CIRCLE('',#316,44.5);
#150=CIRCLE('',#318,9.);
#151=CIRCLE('',#319,9.);
#152=CIRCLE('',#320,9.);
#153=CIRCLE('',#321,9.);
#154=CIRCLE('',#322,100.);
#155=CIRCLE('',#323,9.);
#156=CIRCLE('',#324,9.);
#157=CIRCLE('',#325,9.);
#158=CIRCLE('',#326,9.);
#159=CIRCLE('',#327,45.);
#160=CIRCLE('',#334,45.);
#161=CIRCLE('',#336,47.);
#162=CIRCLE('',#339,44.5);
#163=CIRCLE('',#341,42.45);
#164=EDGE_LOOP('',(#34));
#165=EDGE_LOOP('',(#35));
#166=EDGE_LOOP('',(#36));
#167=EDGE_LOOP('',(#37));
#168=EDGE_LOOP('',(#38));
#169=EDGE_LOOP('',(#39));
#170=EDGE_LOOP('',(#40));
#171=EDGE_LOOP('',(#41));
#172=EDGE_LOOP('',(#42));
#173=EDGE_LOOP('',(#43));
#174=EDGE_LOOP('',(#44));
#175=EDGE_LOOP('',(#45));
#176=EDGE_LOOP('',(#46));
#177=EDGE_LOOP('',(#47));
#178=EDGE_LOOP('',(#48));
#179=EDGE_LOOP('',(#49));
#180=EDGE_LOOP('',(#50));
#181=EDGE_LOOP('',(#51));
#182=EDGE_LOOP('',(#52));
#183=EDGE_LOOP('',(#53));
#184=EDGE_LOOP('',(#54));
#185=EDGE_LOOP('',(#55));
#186=EDGE_LOOP('',(#56));
#187=EDGE_LOOP('',(#57));
#188=EDGE_LOOP('',(#58));
#189=EDGE_LOOP('',(#59));
#190=EDGE_LOOP('',(#60));
#191=EDGE_LOOP('',(#61));
#192=EDGE_LOOP('',(#62));
#193=EDGE_LOOP('',(#63));
#194=EDGE_LOOP('',(#64));
#195=EDGE_LOOP('',(#65));
#196=EDGE_LOOP('',(#66));
#197=EDGE_LOOP('',(#67));
#198=EDGE_LOOP('',(#68));
#199=EDGE_LOOP('',(#69));
#200=EDGE_LOOP('',(#70));
#201=EDGE_LOOP('',(#71));
#202=EDGE_LOOP('',(#72));
#203=EDGE_LOOP('',(#73));
#204=EDGE_LOOP('',(#74));
#205=EDGE_LOOP('',(#75));
#206=EDGE_LOOP('',(#76));
#207=EDGE_LOOP('',(#77));
#208=EDGE_LOOP('',(#78));
#209=EDGE_LOOP('',(#79));
#210=EDGE_LOOP('',(#80));
#211=EDGE_LOOP('',(#81));
#212=EDGE_LOOP('',(#82));
#213=EDGE_LOOP('',(#83));
#214=EDGE_LOOP('',(#84));
#215=EDGE_LOOP('',(#85));
#216=FACE_BOUND('',#164,.T.);
#217=FACE_BOUND('',#165,.T.);
#218=FACE_BOUND('',#166,.T.);
#219=FACE_BOUND('',#167,.T.);
#220=FACE_BOUND('',#168,.T.);
#221=FACE_BOUND('',#169,.T.);
#222=FACE_BOUND('',#170,.T.);
#223=FACE_BOUND('',#171,.T.);
#224=FACE_BOUND('',#172,.T.);
#225=FACE_BOUND('',#173,.T.);
#226=FACE_BOUND('',#174,.T.);
#227=FACE_BOUND('',#175,.T.);
#228=FACE_BOUND('',#176,.T.);
#229=FACE_BOUND('',#177,.T.);
#230=FACE_BOUND('',#178,.T.);
#231=FACE_BOUND('',#179,.T.);
#232=FACE_BOUND('',#180,.T.);
#233=FACE_BOUND('',#181,.T.);
#234=FACE_BOUND('',#182,.T.);
#235=FACE_BOUND('',#183,.T.);
#236=FACE_BOUND('',#184,.T.);
#237=FACE_BOUND('',#185,.T.);
#238=FACE_BOUND('',#186,.T.);
#239=FACE_BOUND('',#187,.T.);
#240=FACE_BOUND('',#188,.T.);
#241=FACE_BOUND('',#189,.T.);
#242=FACE_BOUND('',#190,.T.);
#243=FACE_BOUND('',#191,.T.);
#244=FACE_BOUND('',#192,.T.);
#245=FACE_BOUND('',#193,.T.);
#246=FACE_BOUND('',#194,.T.);
#247=FACE_BOUND('',#195,.T.);
#248=FACE_BOUND('',#196,.T.);
#249=FACE_BOUND('',#197,.T.);
#250=FACE_BOUND('',#198,.T.);
#251=FACE_BOUND('',#199,.T.);
#252=FACE_BOUND('',#200,.T.);
#253=FACE_BOUND('',#201,.T.);
#254=FACE_BOUND('',#202,.T.);
#255=FACE_BOUND('',#203,.T.);
#256=FACE_BOUND('',#204,.T.);
#257=FACE_BOUND('',#205,.T.);
#258=FACE_BOUND('',#206,.T.);
#259=FACE_BOUND('',#207,.T.);
#260=FACE_BOUND('',#208,.T.);
#261=FACE_BOUND('',#209,.T.);
#262=FACE_BOUND('',#210,.T.);
#263=FACE_BOUND('',#211,.T.);
#264=FACE_BOUND('',#212,.T.);
#265=FACE_BOUND('',#213,.T.);
#266=FACE_BOUND('',#214,.T.);
#267=FACE_BOUND('',#215,.T.);
#268=PLANE('',#303);
#269=PLANE('',#314);
#270=PLANE('',#317);
#271=PLANE('',#340);
#272=ADVANCED_FACE('',(#216,#217,#218,#219,#220,#221,#222,#223,#224,#225),
#268,.T.);
#273=ADVANCED_FACE('',(#226,#227),#269,.T.);
#274=ADVANCED_FACE('',(#228,#229,#230,#231,#232,#233,#234,#235,#236,#237),
#270,.F.);
#275=ADVANCED_FACE('',(#238,#239),#21,.T.);
#276=ADVANCED_FACE('',(#240,#241),#22,.F.);
#277=ADVANCED_FACE('',(#242,#243),#23,.F.);
#278=ADVANCED_FACE('',(#244,#245),#24,.F.);
#279=ADVANCED_FACE('',(#246,#247),#25,.F.);
#280=ADVANCED_FACE('',(#248,#249),#26,.T.);
#281=ADVANCED_FACE('',(#250,#251),#27,.T.);
#282=ADVANCED_FACE('',(#252,#253),#20,.T.);
#283=ADVANCED_FACE('',(#254,#255),#28,.F.);
#284=ADVANCED_FACE('',(#256,#257),#271,.F.);
#285=ADVANCED_FACE('',(#258,#259),#29,.F.);
#286=ADVANCED_FACE('',(#260,#261),#30,.F.);
#287=ADVANCED_FACE('',(#262,#263),#31,.F.);
#288=ADVANCED_FACE('',(#264,#265),#32,.F.);
#289=ADVANCED_FACE('',(#266,#267),#33,.F.);
#290=CLOSED_SHELL('',(#272,#273,#274,#275,#276,#277,#278,#279,#280,#281,
#282,#283,#284,#285,#286,#287,#288,#289));
#291=STYLED_ITEM('',(#292),#299);
#292=PRESENTATION_STYLE_ASSIGNMENT((#293));
#293=SURFACE_STYLE_USAGE(.BOTH.,#294);
#294=SURFACE_SIDE_STYLE('',(#295));
#295=SURFACE_STYLE_FILL_AREA(#296);
#296=FILL_AREA_STYLE('',(#297));
#297=FILL_AREA_STYLE_COLOUR('',#298);
#298=COLOUR_RGB('',0.699999988079071,0.682926833629608,0.524999976158142);
#299=MANIFOLD_SOLID_BREP('',#290);
#300=SHAPE_DEFINITION_REPRESENTATION(#514,#301);
#301=SHAPE_REPRESENTATION('F19DN88,9',(#302),#509);
#302=AXIS2_PLACEMENT_3D('',#437,#347,#348);
#303=AXIS2_PLACEMENT_3D('',#438,#349,#350);
#304=AXIS2_PLACEMENT_3D('',#439,#351,#352);
#305=AXIS2_PLACEMENT_3D('',#441,#353,#354);
#306=AXIS2_PLACEMENT_3D('',#443,#355,#356);
#307=AXIS2_PLACEMENT_3D('',#445,#357,#358);
#308=AXIS2_PLACEMENT_3D('',#447,#359,#360);
#309=AXIS2_PLACEMENT_3D('',#449,#361,#362);
#310=AXIS2_PLACEMENT_3D('',#451,#363,#364);
#311=AXIS2_PLACEMENT_3D('',#453,#365,#366);
#312=AXIS2_PLACEMENT_3D('',#455,#367,#368);
#313=AXIS2_PLACEMENT_3D('',#457,#369,#370);
#314=AXIS2_PLACEMENT_3D('',#459,#371,#372);
#315=AXIS2_PLACEMENT_3D('',#460,#373,#374);
#316=AXIS2_PLACEMENT_3D('',#462,#375,#376);
#317=AXIS2_PLACEMENT_3D('',#464,#377,#378);
#318=AXIS2_PLACEMENT_3D('',#465,#379,#380);
#319=AXIS2_PLACEMENT_3D('',#467,#381,#382);
#320=AXIS2_PLACEMENT_3D('',#469,#383,#384);
#321=AXIS2_PLACEMENT_3D('',#471,#385,#386);
#322=AXIS2_PLACEMENT_3D('',#473,#387,#388);
#323=AXIS2_PLACEMENT_3D('',#475,#389,#390);
#324=AXIS2_PLACEMENT_3D('',#477,#391,#392);
#325=AXIS2_PLACEMENT_3D('',#479,#393,#394);
#326=AXIS2_PLACEMENT_3D('',#481,#395,#396);
#327=AXIS2_PLACEMENT_3D('',#483,#397,#398);
#328=AXIS2_PLACEMENT_3D('',#485,#399,#400);
#329=AXIS2_PLACEMENT_3D('',#486,#401,#402);
#330=AXIS2_PLACEMENT_3D('',#487,#403,#404);
#331=AXIS2_PLACEMENT_3D('',#488,#405,#406);
#332=AXIS2_PLACEMENT_3D('',#489,#407,#408);
#333=AXIS2_PLACEMENT_3D('',#490,#409,#410);
#334=AXIS2_PLACEMENT_3D('',#491,#411,#412);
#335=AXIS2_PLACEMENT_3D('',#493,#413,#414);
#336=AXIS2_PLACEMENT_3D('',#494,#415,#416);
#337=AXIS2_PLACEMENT_3D('',#496,#417,#418);
#338=AXIS2_PLACEMENT_3D('',#497,#419,#420);
#339=AXIS2_PLACEMENT_3D('',#498,#421,#422);
#340=AXIS2_PLACEMENT_3D('',#500,#423,#424);
#341=AXIS2_PLACEMENT_3D('',#501,#425,#426);
#342=AXIS2_PLACEMENT_3D('',#503,#427,#428);
#343=AXIS2_PLACEMENT_3D('',#504,#429,#430);
#344=AXIS2_PLACEMENT_3D('',#505,#431,#432);
#345=AXIS2_PLACEMENT_3D('',#506,#433,#434);
#346=AXIS2_PLACEMENT_3D('',#507,#435,#436);
#347=DIRECTION('',(0.,0.,1.));
#348=DIRECTION('',(1.,0.,0.));
#349=DIRECTION('',(0.,-1.,0.));
#350=DIRECTION('',(0.,0.,-1.));
#351=DIRECTION('',(0.,-1.,0.));
#352=DIRECTION('',(1.,0.,0.));
#353=DIRECTION('',(0.,-1.,0.));
#354=DIRECTION('',(1.,0.,0.));
#355=DIRECTION('',(0.,-1.,0.));
#356=DIRECTION('',(1.,0.,0.));
#357=DIRECTION('',(0.,-1.,0.));
#358=DIRECTION('',(1.,0.,0.));
#359=DIRECTION('',(0.,-1.,0.));
#360=DIRECTION('',(1.,0.,0.));
#361=DIRECTION('',(0.,-1.,0.));
#362=DIRECTION('',(1.,0.,0.));
#363=DIRECTION('',(0.,-1.,0.));
#364=DIRECTION('',(1.,0.,0.));
#365=DIRECTION('',(0.,-1.,0.));
#366=DIRECTION('',(1.,0.,0.));
#367=DIRECTION('',(0.,-1.,0.));
#368=DIRECTION('',(0.,0.,-1.));
#369=DIRECTION('',(0.,1.,0.));
#370=DIRECTION('',(1.,0.,0.));
#371=DIRECTION('',(0.,1.,0.));
#372=DIRECTION('',(0.,0.,1.));
#373=DIRECTION('',(0.,1.,0.));
#374=DIRECTION('',(0.,0.,1.));
#375=DIRECTION('',(0.,1.,0.));
#376=DIRECTION('',(0.,0.,1.));
#377=DIRECTION('',(0.,-1.,0.));
#378=DIRECTION('',(0.,0.,-1.));
#379=DIRECTION('',(0.,-1.,0.));
#380=DIRECTION('',(0.,0.,-1.));
#381=DIRECTION('',(0.,-1.,0.));
#382=DIRECTION('',(0.,0.,-1.));
#383=DIRECTION('',(0.,-1.,0.));
#384=DIRECTION('',(0.,0.,-1.));
#385=DIRECTION('',(0.,-1.,0.));
#386=DIRECTION('',(0.,0.,-1.));
#387=DIRECTION('',(0.,-1.,0.));
#388=DIRECTION('',(0.,0.,-1.));
#389=DIRECTION('',(0.,-1.,0.));
#390=DIRECTION('',(0.,0.,-1.));
#391=DIRECTION('',(0.,-1.,0.));
#392=DIRECTION('',(0.,0.,-1.));
#393=DIRECTION('',(0.,-1.,0.));
#394=DIRECTION('',(0.,0.,-1.));
#395=DIRECTION('',(0.,-1.,0.));
#396=DIRECTION('',(0.,0.,-1.));
#397=DIRECTION('',(0.,-1.,0.));
#398=DIRECTION('',(0.,0.,-1.));
#399=DIRECTION('',(0.,-1.,0.));
#400=DIRECTION('',(0.,0.,-1.));
#401=DIRECTION('',(0.,-1.,0.));
#402=DIRECTION('',(0.,0.,-1.));
#403=DIRECTION('',(0.,-1.,0.));
#404=DIRECTION('',(0.,0.,-1.));
#405=DIRECTION('',(0.,-1.,0.));
#406=DIRECTION('',(0.,0.,-1.));
#407=DIRECTION('',(0.,-1.,0.));
#408=DIRECTION('',(0.,0.,-1.));
#409=DIRECTION('',(0.,-1.,0.));
#410=DIRECTION('',(0.,0.,-1.));
#411=DIRECTION('',(0.,1.,0.));
#412=DIRECTION('',(0.,0.,1.));
#413=DIRECTION('',(0.,1.,0.));
#414=DIRECTION('',(0.,0.,1.));
#415=DIRECTION('',(0.,1.,0.));
#416=DIRECTION('',(0.,0.,1.));
#417=DIRECTION('',(0.,1.,0.));
#418=DIRECTION('',(0.,0.,1.));
#419=DIRECTION('',(0.,1.,0.));
#420=DIRECTION('',(0.,0.,1.));
#421=DIRECTION('',(0.,-1.,0.));
#422=DIRECTION('',(0.,0.,-1.));
#423=DIRECTION('',(0.,-1.,0.));
#424=DIRECTION('',(0.,0.,-1.));
#425=DIRECTION('',(0.,-1.,0.));
#426=DIRECTION('',(0.,0.,-1.));
#427=DIRECTION('',(0.,-1.,0.));
#428=DIRECTION('',(0.,0.,-1.));
#429=DIRECTION('',(0.,-1.,0.));
#430=DIRECTION('',(0.,0.,-1.));
#431=DIRECTION('',(0.,-1.,0.));
#432=DIRECTION('',(0.,0.,-1.));
#433=DIRECTION('',(0.,-1.,0.));
#434=DIRECTION('',(0.,0.,-1.));
#435=DIRECTION('',(0.,-1.,0.));
#436=DIRECTION('',(0.,0.,-1.));
#437=CARTESIAN_POINT('',(0.,0.,0.));
#438=CARTESIAN_POINT('',(0.,0.,0.));
#439=CARTESIAN_POINT('',(-56.5685424949238,0.,-56.5685424949238));
#440=CARTESIAN_POINT('',(-47.5685424949238,0.,-56.5685424949238));
#441=CARTESIAN_POINT('',(56.5685424949238,0.,-56.5685424949238));
#442=CARTESIAN_POINT('',(65.5685424949238,0.,-56.5685424949238));
#443=CARTESIAN_POINT('',(56.5685424949238,0.,56.5685424949238));
#444=CARTESIAN_POINT('',(65.5685424949238,0.,56.5685424949238));
#445=CARTESIAN_POINT('',(-56.5685424949238,0.,56.5685424949238));
#446=CARTESIAN_POINT('',(-47.5685424949238,0.,56.5685424949238));
#447=CARTESIAN_POINT('',(80.,0.,0.));
#448=CARTESIAN_POINT('',(89.,0.,0.));
#449=CARTESIAN_POINT('',(-80.,0.,0.));
#450=CARTESIAN_POINT('',(-71.,0.,0.));
#451=CARTESIAN_POINT('',(-1.30104260698261E-15,0.,-80.));
#452=CARTESIAN_POINT('',(9.,0.,-80.));
#453=CARTESIAN_POINT('',(0.,3.1524716942289E-17,80.));
#454=CARTESIAN_POINT('',(9.,3.1524716942289E-17,80.));
#455=CARTESIAN_POINT('',(0.,0.,0.));
#456=CARTESIAN_POINT('',(0.,0.,-100.));
#457=CARTESIAN_POINT('',(0.,0.,-1.73472347597681E-15));
#458=CARTESIAN_POINT('',(42.45,0.,-1.73472347597681E-15));
#459=CARTESIAN_POINT('',(0.,146.,0.));
#460=CARTESIAN_POINT('',(0.,146.,0.));
#461=CARTESIAN_POINT('',(0.,146.,47.));
#462=CARTESIAN_POINT('',(0.,146.,0.));
#463=CARTESIAN_POINT('',(0.,146.,44.5));
#464=CARTESIAN_POINT('',(-6.12303176911189E-17,20.,0.));
#465=CARTESIAN_POINT('',(-56.5685424949238,20.,-56.5685424949238));
#466=CARTESIAN_POINT('',(-56.5685424949238,20.,-65.5685424949238));
#467=CARTESIAN_POINT('',(56.5685424949238,20.,-56.5685424949238));
#468=CARTESIAN_POINT('',(56.5685424949238,20.,-65.5685424949238));
#469=CARTESIAN_POINT('',(56.5685424949238,20.,56.5685424949238));
#470=CARTESIAN_POINT('',(56.5685424949238,20.,47.5685424949238));
#471=CARTESIAN_POINT('',(-56.5685424949238,20.,56.5685424949238));
#472=CARTESIAN_POINT('',(-56.5685424949238,20.,47.5685424949238));
#473=CARTESIAN_POINT('',(-6.12303176911189E-17,20.,0.));
#474=CARTESIAN_POINT('',(-6.12303176911189E-17,20.,-100.));
#475=CARTESIAN_POINT('',(-6.12303176911189E-17,20.,80.));
#476=CARTESIAN_POINT('',(-6.12303176911189E-17,20.,71.));
#477=CARTESIAN_POINT('',(-1.36227292467372E-15,20.,-80.));
#478=CARTESIAN_POINT('',(-1.36227292467372E-15,20.,-89.));
#479=CARTESIAN_POINT('',(-80.,20.,0.));
#480=CARTESIAN_POINT('',(-80.,20.,-9.));
#481=CARTESIAN_POINT('',(80.,20.,0.));
#482=CARTESIAN_POINT('',(80.,20.,-9.));
#483=CARTESIAN_POINT('',(-6.12303176911189E-17,20.,0.));
#484=CARTESIAN_POINT('',(-6.12303176911189E-17,20.,-45.));
#485=CARTESIAN_POINT('',(0.,18.,0.));
#486=CARTESIAN_POINT('',(0.,262.318508687435,80.));
#487=CARTESIAN_POINT('',(-1.30104260698261E-15,262.318508687435,-80.));
#488=CARTESIAN_POINT('',(-80.,262.318508687435,0.));
#489=CARTESIAN_POINT('',(80.,262.318508687435,0.));
#490=CARTESIAN_POINT('',(0.,114.,0.));
#491=CARTESIAN_POINT('',(0.,85.5,0.));
#492=CARTESIAN_POINT('',(0.,85.5,45.));
#493=CARTESIAN_POINT('',(0.,76.2,0.));
#494=CARTESIAN_POINT('',(0.,87.5,0.));
#495=CARTESIAN_POINT('',(0.,87.5,47.));
#496=CARTESIAN_POINT('',(0.,79.5,0.));
#497=CARTESIAN_POINT('',(0.,85.5,0.));
#498=CARTESIAN_POINT('',(9.18454765366767E-17,91.,0.));
#499=CARTESIAN_POINT('',(9.18454765366767E-17,91.,-44.5));
#500=CARTESIAN_POINT('',(9.18454765366767E-17,91.,0.));
#501=CARTESIAN_POINT('',(9.18454765366767E-17,91.,-1.73472347597681E-15));
#502=CARTESIAN_POINT('',(9.18454765366767E-17,91.,-42.45));
#503=CARTESIAN_POINT('',(-56.5685424949238,310.457726590916,56.5685424949238));
#504=CARTESIAN_POINT('',(56.5685424949238,310.457726590916,56.5685424949238));
#505=CARTESIAN_POINT('',(56.5685424949238,310.457726590916,-56.5685424949238));
#506=CARTESIAN_POINT('',(-56.5685424949238,310.457726590916,-56.5685424949238));
#507=CARTESIAN_POINT('',(0.,253.56362914225,-1.73472347597681E-15));
#508=MECHANICAL_DESIGN_GEOMETRIC_PRESENTATION_REPRESENTATION('',(#291),
#509);
#509=(
GEOMETRIC_REPRESENTATION_CONTEXT(3)
GLOBAL_UNCERTAINTY_ASSIGNED_CONTEXT((#510))
GLOBAL_UNIT_ASSIGNED_CONTEXT((#513,#512,#511))
REPRESENTATION_CONTEXT('F19DN88,9','TOP_LEVEL_ASSEMBLY_PART')
);
#510=UNCERTAINTY_MEASURE_WITH_UNIT(LENGTH_MEASURE(0.005),#513,
'DISTANCE_ACCURACY_VALUE','Maximum Tolerance applied to model');
#511=(
NAMED_UNIT(*)
SI_UNIT($,.STERADIAN.)
SOLID_ANGLE_UNIT()
);
#512=(
NAMED_UNIT(*)
PLANE_ANGLE_UNIT()
SI_UNIT($,.RADIAN.)
);
#513=(
LENGTH_UNIT()
NAMED_UNIT(*)
SI_UNIT(.MILLI.,.METRE.)
);
#514=PRODUCT_DEFINITION_SHAPE('','',#515);
#515=PRODUCT_DEFINITION('','',#517,#516);
#516=PRODUCT_DEFINITION_CONTEXT('',#523,'design');
#517=PRODUCT_DEFINITION_FORMATION_WITH_SPECIFIED_SOURCE('','',#519,
 .NOT_KNOWN.);
#518=PRODUCT_RELATED_PRODUCT_CATEGORY('','',(#519));
#519=PRODUCT('F19DN88,9','F19DN88,9','F19DN88,9',(#521));
#520=PRODUCT_CATEGORY('','');
#521=PRODUCT_CONTEXT('',#523,'mechanical');
#522=APPLICATION_PROTOCOL_DEFINITION('international standard',
'automotive_design',2010,#523);
#523=APPLICATION_CONTEXT(
'core data for automotive mechanical design processes');
ENDSEC;
END-ISO-10303-21;
