ISO-10303-21;
HEADER;
FILE_DESCRIPTION( ( 'Unknown' ), '1' );
FILE_NAME( '//Server/ofimatica/alfredo/Alfredo2/ISOTUBI/PZAS3D/FICHATECNICA/NUMEPRESS/generico 3D/F21DN15.stp', 'Unknown', ( 'Unknown' ), ( 'Unknown' ), 'PSStep 14.0', 'Unknown', '  ' );
FILE_SCHEMA( ( 'AUTOMOTIVE_DESIGN { 1 0 10303 214 1 1 1 1 }' ) );
ENDSEC;
DATA;
#1 = MECHANICAL_DESIGN_GEOMETRIC_PRESENTATION_REPRESENTATION( ' ', ( #10, #11, #12, #13, #14, #15, #16, #17, #18, #19, #20 ), #6 );
#2 = PRODUCT_DEFINITION_CONTEXT( '', #21, 'design' );
#3 = APPLICATION_PROTOCOL_DEFINITION( 'international standard', 'automotive_design', 2001, #21 );
#4 = PRODUCT_CATEGORY_RELATIONSHIP( 'NONE', 'NONE', #22, #23 );
#5 = SHAPE_DEFINITION_REPRESENTATION( #24, #25 );
#6 =  ( GEOMETRIC_REPRESENTATION_CONTEXT( 3 )GLOBAL_UNCERTAINTY_ASSIGNED_CONTEXT( ( #28 ) )GLOBAL_UNIT_ASSIGNED_CONTEXT( ( #30, #31, #32 ) )REPRESENTATION_CONTEXT( 'NONE', 'WORKSPACE' ) );
#10 = STYLED_ITEM( '', ( #34 ), #35 );
#11 = STYLED_ITEM( '', ( #36 ), #37 );
#12 = STYLED_ITEM( '', ( #38 ), #39 );
#13 = STYLED_ITEM( '', ( #40 ), #41 );
#14 = STYLED_ITEM( '', ( #42 ), #43 );
#15 = STYLED_ITEM( '', ( #44 ), #45 );
#16 = STYLED_ITEM( '', ( #46 ), #47 );
#17 = STYLED_ITEM( '', ( #48 ), #49 );
#18 = STYLED_ITEM( '', ( #50 ), #51 );
#19 = STYLED_ITEM( '', ( #52 ), #53 );
#20 = STYLED_ITEM( '', ( #54 ), #55 );
#21 = APPLICATION_CONTEXT( 'core data for automotive mechanical design processes' );
#22 = PRODUCT_CATEGORY( 'part', 'NONE' );
#23 = PRODUCT_RELATED_PRODUCT_CATEGORY( 'detail', ' ', ( #56 ) );
#24 = PRODUCT_DEFINITION_SHAPE( 'NONE', 'NONE', #57 );
#25 = ADVANCED_BREP_SHAPE_REPRESENTATION( '1', ( #58, #59 ), #6 );
#28 = UNCERTAINTY_MEASURE_WITH_UNIT( LENGTH_MEASURE( 0.00100000000000000 ), #30, '', '' );
#30 =  ( CONVERSION_BASED_UNIT( 'MILLIMETRE', #62 )LENGTH_UNIT(  )NAMED_UNIT( #65 ) );
#31 =  ( NAMED_UNIT( #67 )PLANE_ANGLE_UNIT(  )SI_UNIT( $, .RADIAN. ) );
#32 =  ( NAMED_UNIT( #67 )SI_UNIT( $, .STERADIAN. )SOLID_ANGLE_UNIT(  ) );
#34 = PRESENTATION_STYLE_ASSIGNMENT( ( #73 ) );
#35 = ADVANCED_FACE( '', ( #74 ), #75, .F. );
#36 = PRESENTATION_STYLE_ASSIGNMENT( ( #76 ) );
#37 = ADVANCED_FACE( '', ( #77, #78 ), #79, .T. );
#38 = PRESENTATION_STYLE_ASSIGNMENT( ( #80 ) );
#39 = ADVANCED_FACE( '', ( #81, #82 ), #83, .T. );
#40 = PRESENTATION_STYLE_ASSIGNMENT( ( #84 ) );
#41 = ADVANCED_FACE( '', ( #85 ), #86, .T. );
#42 = PRESENTATION_STYLE_ASSIGNMENT( ( #87 ) );
#43 = ADVANCED_FACE( '', ( #88, #89 ), #90, .T. );
#44 = PRESENTATION_STYLE_ASSIGNMENT( ( #91 ) );
#45 = ADVANCED_FACE( '', ( #92, #93 ), #94, .F. );
#46 = PRESENTATION_STYLE_ASSIGNMENT( ( #95 ) );
#47 = ADVANCED_FACE( '', ( #96, #97 ), #98, .T. );
#48 = PRESENTATION_STYLE_ASSIGNMENT( ( #99 ) );
#49 = ADVANCED_FACE( '', ( #100, #101 ), #102, .F. );
#50 = PRESENTATION_STYLE_ASSIGNMENT( ( #103 ) );
#51 = ADVANCED_FACE( '', ( #104, #105 ), #106, .F. );
#52 = PRESENTATION_STYLE_ASSIGNMENT( ( #107 ) );
#53 = ADVANCED_FACE( '', ( #108 ), #109, .F. );
#54 = PRESENTATION_STYLE_ASSIGNMENT( ( #110 ) );
#55 = ADVANCED_FACE( '', ( #111 ), #112, .T. );
#56 = PRODUCT( '1', '1', 'PART-1-DESC', ( #113 ) );
#57 = PRODUCT_DEFINITION( 'NONE', 'NONE', #114, #2 );
#58 = BREP_WITH_VOIDS( '1', #115, ( #116 ) );
#59 = AXIS2_PLACEMENT_3D( '', #117, #118, #119 );
#62 = LENGTH_MEASURE_WITH_UNIT( LENGTH_MEASURE( 1.00000000000000 ), #120 );
#65 = DIMENSIONAL_EXPONENTS( 1.00000000000000, 0.000000000000000, 0.000000000000000, 0.000000000000000, 0.000000000000000, 0.000000000000000, 0.000000000000000 );
#67 = DIMENSIONAL_EXPONENTS( 0.000000000000000, 0.000000000000000, 0.000000000000000, 0.000000000000000, 0.000000000000000, 0.000000000000000, 0.000000000000000 );
#73 = SURFACE_STYLE_USAGE( .BOTH., #121 );
#74 = FACE_OUTER_BOUND( '', #122, .T. );
#75 = PLANE( '', #123 );
#76 = SURFACE_STYLE_USAGE( .BOTH., #124 );
#77 = FACE_OUTER_BOUND( '', #125, .T. );
#78 = FACE_BOUND( '', #126, .T. );
#79 = CONICAL_SURFACE( '', #127, 8.50000000000000, 0.785398163397449 );
#80 = SURFACE_STYLE_USAGE( .BOTH., #128 );
#81 = FACE_OUTER_BOUND( '', #129, .T. );
#82 = FACE_OUTER_BOUND( '', #130, .T. );
#83 = CYLINDRICAL_SURFACE( '', #131, 8.75000000000000 );
#84 = SURFACE_STYLE_USAGE( .BOTH., #132 );
#85 = FACE_OUTER_BOUND( '', #133, .T. );
#86 = PLANE( '', #134 );
#87 = SURFACE_STYLE_USAGE( .BOTH., #135 );
#88 = FACE_OUTER_BOUND( '', #136, .T. );
#89 = FACE_OUTER_BOUND( '', #137, .T. );
#90 = TOROIDAL_SURFACE( '', #138, 7.25000000000000, 1.50000000000000 );
#91 = SURFACE_STYLE_USAGE( .BOTH., #139 );
#92 = FACE_OUTER_BOUND( '', #140, .T. );
#93 = FACE_OUTER_BOUND( '', #141, .T. );
#94 = CYLINDRICAL_SURFACE( '', #142, 7.50000000000000 );
#95 = SURFACE_STYLE_USAGE( .BOTH., #143 );
#96 = FACE_OUTER_BOUND( '', #144, .T. );
#97 = FACE_OUTER_BOUND( '', #145, .T. );
#98 = CYLINDRICAL_SURFACE( '', #146, 10.0000000000000 );
#99 = SURFACE_STYLE_USAGE( .BOTH., #147 );
#100 = FACE_OUTER_BOUND( '', #148, .T. );
#101 = FACE_OUTER_BOUND( '', #149, .T. );
#102 = CYLINDRICAL_SURFACE( '', #150, 7.25000000000000 );
#103 = SURFACE_STYLE_USAGE( .BOTH., #151 );
#104 = FACE_OUTER_BOUND( '', #152, .T. );
#105 = FACE_BOUND( '', #153, .T. );
#106 = PLANE( '', #154 );
#107 = SURFACE_STYLE_USAGE( .BOTH., #155 );
#108 = FACE_OUTER_BOUND( '', #156, .T. );
#109 = SPHERICAL_SURFACE( '', #157, 13.0000000000000 );
#110 = SURFACE_STYLE_USAGE( .BOTH., #158 );
#111 = FACE_OUTER_BOUND( '', #159, .T. );
#112 = SPHERICAL_SURFACE( '', #160, 15.0000000000000 );
#113 = PRODUCT_CONTEXT( '', #21, 'mechanical' );
#114 = PRODUCT_DEFINITION_FORMATION_WITH_SPECIFIED_SOURCE( ' ', 'NONE', #56, .NOT_KNOWN. );
#115 = CLOSED_SHELL( '', ( #51, #37, #45, #35, #47, #55, #43, #39 ) );
#116 = ORIENTED_CLOSED_SHELL( '', *, #161, .T. );
#117 = CARTESIAN_POINT( '', ( 0.000000000000000, 0.000000000000000, 0.000000000000000 ) );
#118 = DIRECTION( '', ( 0.000000000000000, 0.000000000000000, 1.00000000000000 ) );
#119 = DIRECTION( '', ( 1.00000000000000, 0.000000000000000, 0.000000000000000 ) );
#120 =  ( LENGTH_UNIT(  )NAMED_UNIT( #65 )SI_UNIT( .MILLI., .METRE. ) );
#121 = SURFACE_SIDE_STYLE( '', ( #163 ) );
#122 = EDGE_LOOP( '', ( #164 ) );
#123 = AXIS2_PLACEMENT_3D( '', #165, #166, #167 );
#124 = SURFACE_SIDE_STYLE( '', ( #168 ) );
#125 = EDGE_LOOP( '', ( #169 ) );
#126 = EDGE_LOOP( '', ( #170 ) );
#127 = AXIS2_PLACEMENT_3D( '', #171, #172, #173 );
#128 = SURFACE_SIDE_STYLE( '', ( #174 ) );
#129 = EDGE_LOOP( '', ( #175 ) );
#130 = EDGE_LOOP( '', ( #176 ) );
#131 = AXIS2_PLACEMENT_3D( '', #177, #178, #179 );
#132 = SURFACE_SIDE_STYLE( '', ( #180 ) );
#133 = EDGE_LOOP( '', ( #181 ) );
#134 = AXIS2_PLACEMENT_3D( '', #182, #183, #184 );
#135 = SURFACE_SIDE_STYLE( '', ( #185 ) );
#136 = EDGE_LOOP( '', ( #186 ) );
#137 = EDGE_LOOP( '', ( #187 ) );
#138 = AXIS2_PLACEMENT_3D( '', #188, #189, #190 );
#139 = SURFACE_SIDE_STYLE( '', ( #191 ) );
#140 = EDGE_LOOP( '', ( #192 ) );
#141 = EDGE_LOOP( '', ( #193 ) );
#142 = AXIS2_PLACEMENT_3D( '', #194, #195, #196 );
#143 = SURFACE_SIDE_STYLE( '', ( #197 ) );
#144 = EDGE_LOOP( '', ( #198 ) );
#145 = EDGE_LOOP( '', ( #199 ) );
#146 = AXIS2_PLACEMENT_3D( '', #200, #201, #202 );
#147 = SURFACE_SIDE_STYLE( '', ( #203 ) );
#148 = EDGE_LOOP( '', ( #204 ) );
#149 = EDGE_LOOP( '', ( #205 ) );
#150 = AXIS2_PLACEMENT_3D( '', #206, #207, #208 );
#151 = SURFACE_SIDE_STYLE( '', ( #209 ) );
#152 = EDGE_LOOP( '', ( #210 ) );
#153 = EDGE_LOOP( '', ( #211 ) );
#154 = AXIS2_PLACEMENT_3D( '', #212, #213, #214 );
#155 = SURFACE_SIDE_STYLE( '', ( #215 ) );
#156 = EDGE_LOOP( '', ( #216 ) );
#157 = AXIS2_PLACEMENT_3D( '', #217, #218, #219 );
#158 = SURFACE_SIDE_STYLE( '', ( #220 ) );
#159 = EDGE_LOOP( '', ( #221 ) );
#160 = AXIS2_PLACEMENT_3D( '', #222, #223, #224 );
#161 = CLOSED_SHELL( '', ( #41, #49, #53 ) );
#163 = SURFACE_STYLE_FILL_AREA( #225 );
#164 = ORIENTED_EDGE( '', *, *, #226, .F. );
#165 = CARTESIAN_POINT( '', ( -1.90744979687019E-014, 1.07199009845816E-031, -10.5000000000000 ) );
#166 = DIRECTION( '', ( 1.21430643318376E-015, -2.47327048887576E-032, 1.00000000000000 ) );
#167 = DIRECTION( '', ( 1.00000000000000, 0.000000000000000, -1.21430643318376E-015 ) );
#168 = SURFACE_STYLE_FILL_AREA( #227 );
#169 = ORIENTED_EDGE( '', *, *, #228, .F. );
#170 = ORIENTED_EDGE( '', *, *, #229, .F. );
#171 = CARTESIAN_POINT( '', ( -9.43213373680388E-015, 5.13170824337702E-046, -2.50000000000000 ) );
#172 = DIRECTION( '', ( -1.19403062916867E-015, 0.000000000000000, -1.00000000000000 ) );
#173 = DIRECTION( '', ( -1.00000000000000, 0.000000000000000, 1.19403062916867E-015 ) );
#174 = SURFACE_STYLE_FILL_AREA( #230 );
#175 = ORIENTED_EDGE( '', *, *, #229, .T. );
#176 = ORIENTED_EDGE( '', *, *, #231, .T. );
#177 = CARTESIAN_POINT( '', ( -2.62686738417107E-015, 0.000000000000000, 4.19940685472272 ) );
#178 = DIRECTION( '', ( 1.19403062916867E-015, -0.000000000000000, 1.00000000000000 ) );
#179 = DIRECTION( '', ( -1.00000000000000, 0.000000000000000, 1.19403062916867E-015 ) );
#180 = SURFACE_STYLE_FILL_AREA( #232 );
#181 = ORIENTED_EDGE( '', *, *, #233, .F. );
#182 = CARTESIAN_POINT( '', ( -9.43213373680388E-015, 5.13170824337702E-046, -2.50000000000000 ) );
#183 = DIRECTION( '', ( 1.18952466924124E-015, 5.35995049229082E-033, 1.00000000000000 ) );
#184 = DIRECTION( '', ( 1.00000000000000, 0.000000000000000, -1.18952466924124E-015 ) );
#185 = SURFACE_STYLE_FILL_AREA( #234 );
#186 = ORIENTED_EDGE( '', *, *, #231, .F. );
#187 = ORIENTED_EDGE( '', *, *, #235, .T. );
#188 = CARTESIAN_POINT( '', ( -4.33680868994202E-015, 0.000000000000000, 2.78744882865309 ) );
#189 = DIRECTION( '', ( -1.19403062916867E-015, 0.000000000000000, -1.00000000000000 ) );
#190 = DIRECTION( '', ( -1.00000000000000, 0.000000000000000, 1.19403062916867E-015 ) );
#191 = SURFACE_STYLE_FILL_AREA( #236 );
#192 = ORIENTED_EDGE( '', *, *, #226, .T. );
#193 = ORIENTED_EDGE( '', *, *, #237, .F. );
#194 = CARTESIAN_POINT( '', ( -1.90744979687019E-014, 1.07199009845816E-031, -10.5000000000000 ) );
#195 = DIRECTION( '', ( 1.18952466924124E-015, 5.35995049229082E-033, 1.00000000000000 ) );
#196 = DIRECTION( '', ( -1.00000000000000, 0.000000000000000, 1.18952466924124E-015 ) );
#197 = SURFACE_STYLE_FILL_AREA( #238 );
#198 = ORIENTED_EDGE( '', *, *, #228, .T. );
#199 = ORIENTED_EDGE( '', *, *, #239, .T. );
#200 = CARTESIAN_POINT( '', ( -4.28649913535266E-014, 5.13170824337702E-046, -30.5000000000000 ) );
#201 = DIRECTION( '', ( -1.19403062916867E-015, -0.000000000000000, -1.00000000000000 ) );
#202 = DIRECTION( '', ( 1.00000000000000, 0.000000000000000, -1.19403062916867E-015 ) );
#203 = SURFACE_STYLE_FILL_AREA( #240 );
#204 = ORIENTED_EDGE( '', *, *, #241, .F. );
#205 = ORIENTED_EDGE( '', *, *, #233, .T. );
#206 = CARTESIAN_POINT( '', ( -2.62686738417107E-015, 0.000000000000000, 4.19940685472272 ) );
#207 = DIRECTION( '', ( 1.19403062916867E-015, -0.000000000000000, 1.00000000000000 ) );
#208 = DIRECTION( '', ( -1.00000000000000, 0.000000000000000, 1.19403062916867E-015 ) );
#209 = SURFACE_STYLE_FILL_AREA( #242 );
#210 = ORIENTED_EDGE( '', *, *, #239, .F. );
#211 = ORIENTED_EDGE( '', *, *, #237, .T. );
#212 = CARTESIAN_POINT( '', ( -4.28649913535266E-014, 5.13170824337702E-046, -30.5000000000000 ) );
#213 = DIRECTION( '', ( 1.18952466924124E-015, 5.35995049229082E-033, 1.00000000000000 ) );
#214 = DIRECTION( '', ( 1.00000000000000, 0.000000000000000, -1.18952466924124E-015 ) );
#215 = SURFACE_STYLE_FILL_AREA( #243 );
#216 = ORIENTED_EDGE( '', *, *, #241, .T. );
#217 = CARTESIAN_POINT( '', ( 0.000000000000000, 0.000000000000000, -8.60059314527728 ) );
#218 = DIRECTION( '', ( -1.19403062916867E-015, 0.000000000000000, -1.00000000000000 ) );
#219 = DIRECTION( '', ( -1.00000000000000, 0.000000000000000, 1.19403062916867E-015 ) );
#220 = SURFACE_STYLE_FILL_AREA( #244 );
#221 = ORIENTED_EDGE( '', *, *, #235, .F. );
#222 = CARTESIAN_POINT( '', ( 0.000000000000000, 0.000000000000000, -8.60059314527728 ) );
#223 = DIRECTION( '', ( -1.19403062916867E-015, 0.000000000000000, -1.00000000000000 ) );
#224 = DIRECTION( '', ( -1.00000000000000, 0.000000000000000, 1.19403062916867E-015 ) );
#225 = FILL_AREA_STYLE( '', ( #245 ) );
#226 = EDGE_CURVE( '', #246, #246, #247, .T. );
#227 = FILL_AREA_STYLE( '', ( #248 ) );
#228 = EDGE_CURVE( '', #249, #249, #250, .F. );
#229 = EDGE_CURVE( '', #251, #251, #252, .F. );
#230 = FILL_AREA_STYLE( '', ( #253 ) );
#231 = EDGE_CURVE( '', #254, #254, #255, .T. );
#232 = FILL_AREA_STYLE( '', ( #256 ) );
#233 = EDGE_CURVE( '', #257, #257, #258, .F. );
#234 = FILL_AREA_STYLE( '', ( #259 ) );
#235 = EDGE_CURVE( '', #260, #260, #261, .T. );
#236 = FILL_AREA_STYLE( '', ( #262 ) );
#237 = EDGE_CURVE( '', #263, #263, #264, .T. );
#238 = FILL_AREA_STYLE( '', ( #265 ) );
#239 = EDGE_CURVE( '', #266, #266, #267, .T. );
#240 = FILL_AREA_STYLE( '', ( #268 ) );
#241 = EDGE_CURVE( '', #269, #269, #270, .T. );
#242 = FILL_AREA_STYLE( '', ( #271 ) );
#243 = FILL_AREA_STYLE( '', ( #272 ) );
#244 = FILL_AREA_STYLE( '', ( #273 ) );
#245 = FILL_AREA_STYLE_COLOUR( '', #274 );
#246 = VERTEX_POINT( '', #275 );
#247 = CIRCLE( '', #276, 7.50000000000000 );
#248 = FILL_AREA_STYLE_COLOUR( '', #277 );
#249 = VERTEX_POINT( '', #278 );
#250 = CIRCLE( '', #279, 10.0000000000000 );
#251 = VERTEX_POINT( '', #280 );
#252 = CIRCLE( '', #281, 8.75000000000000 );
#253 = FILL_AREA_STYLE_COLOUR( '', #282 );
#254 = VERTEX_POINT( '', #283 );
#255 = CIRCLE( '', #284, 8.75000000000000 );
#256 = FILL_AREA_STYLE_COLOUR( '', #285 );
#257 = VERTEX_POINT( '', #286 );
#258 = CIRCLE( '', #287, 7.25000000000000 );
#259 = FILL_AREA_STYLE_COLOUR( '', #288 );
#260 = VERTEX_POINT( '', #289 );
#261 = CIRCLE( '', #290, 8.05555555555556 );
#262 = FILL_AREA_STYLE_COLOUR( '', #291 );
#263 = VERTEX_POINT( '', #292 );
#264 = CIRCLE( '', #293, 7.50000000000000 );
#265 = FILL_AREA_STYLE_COLOUR( '', #294 );
#266 = VERTEX_POINT( '', #295 );
#267 = CIRCLE( '', #296, 10.0000000000000 );
#268 = FILL_AREA_STYLE_COLOUR( '', #297 );
#269 = VERTEX_POINT( '', #298 );
#270 = CIRCLE( '', #299, 7.25000000000000 );
#271 = FILL_AREA_STYLE_COLOUR( '', #300 );
#272 = FILL_AREA_STYLE_COLOUR( '', #301 );
#273 = FILL_AREA_STYLE_COLOUR( '', #302 );
#274 = COLOUR_RGB( '', 0.752941191196442, 0.752941191196442, 0.752941191196442 );
#275 = CARTESIAN_POINT( '', ( 7.49999999999998, -9.10729824887823E-015, -10.5000000000000 ) );
#276 = AXIS2_PLACEMENT_3D( '', #303, #304, #305 );
#277 = COLOUR_RGB( '', 0.752941191196442, 0.752941191196442, 0.752941191196442 );
#278 = CARTESIAN_POINT( '', ( 9.99999999999999, 5.13170824337702E-046, -4.00000000000001 ) );
#279 = AXIS2_PLACEMENT_3D( '', #306, #307, #308 );
#280 = CARTESIAN_POINT( '', ( -8.75000000000001, 5.13170824337702E-046, -2.74999999999999 ) );
#281 = AXIS2_PLACEMENT_3D( '', #309, #310, #311 );
#282 = COLOUR_RGB( '', 0.752941191196442, 0.752941191196442, 0.752941191196442 );
#283 = CARTESIAN_POINT( '', ( -8.75000000000000, 0.000000000000000, 2.78744882865310 ) );
#284 = AXIS2_PLACEMENT_3D( '', #312, #313, #314 );
#285 = COLOUR_RGB( '', 0.752941191196442, 0.752941191196442, 0.752941191196442 );
#286 = CARTESIAN_POINT( '', ( 7.24999999999999, 0.000000000000000, -2.50000000000001 ) );
#287 = AXIS2_PLACEMENT_3D( '', #315, #316, #317 );
#288 = COLOUR_RGB( '', 0.752941191196442, 0.752941191196442, 0.752941191196442 );
#289 = CARTESIAN_POINT( '', ( -8.05555555555556, 0.000000000000000, 4.05278682575647 ) );
#290 = AXIS2_PLACEMENT_3D( '', #318, #319, #320 );
#291 = COLOUR_RGB( '', 0.752941191196442, 0.752941191196442, 0.752941191196442 );
#292 = CARTESIAN_POINT( '', ( 7.49999999999996, -9.10729824887823E-015, -30.5000000000000 ) );
#293 = AXIS2_PLACEMENT_3D( '', #321, #322, #323 );
#294 = COLOUR_RGB( '', 0.752941191196442, 0.752941191196442, 0.752941191196442 );
#295 = CARTESIAN_POINT( '', ( 9.99999999999996, -1.18952466924124E-014, -30.5000000000000 ) );
#296 = AXIS2_PLACEMENT_3D( '', #324, #325, #326 );
#297 = COLOUR_RGB( '', 0.752941191196442, 0.752941191196442, 0.752941191196442 );
#298 = CARTESIAN_POINT( '', ( -7.25000000000001, 0.000000000000000, 2.19002778217635 ) );
#299 = AXIS2_PLACEMENT_3D( '', #327, #328, #329 );
#300 = COLOUR_RGB( '', 0.752941191196442, 0.752941191196442, 0.752941191196442 );
#301 = COLOUR_RGB( '', 0.752941191196442, 0.752941191196442, 0.752941191196442 );
#302 = COLOUR_RGB( '', 0.752941191196442, 0.752941191196442, 0.752941191196442 );
#303 = CARTESIAN_POINT( '', ( -1.90744979687019E-014, 1.07199009845816E-031, -10.5000000000000 ) );
#304 = DIRECTION( '', ( 1.21430643318376E-015, -2.47327048887578E-032, 1.00000000000000 ) );
#305 = DIRECTION( '', ( 1.00000000000000, -1.21430643318376E-015, -1.21430643318376E-015 ) );
#306 = CARTESIAN_POINT( '', ( -1.12231796805569E-014, 5.13170824337702E-046, -4.00000000000000 ) );
#307 = DIRECTION( '', ( 1.19403062916867E-015, 0.000000000000000, 1.00000000000000 ) );
#308 = DIRECTION( '', ( 1.00000000000000, 0.000000000000000, -1.19403062916867E-015 ) );
#309 = CARTESIAN_POINT( '', ( -9.73064139409603E-015, 5.13170824337702E-046, -2.75000000000000 ) );
#310 = DIRECTION( '', ( -1.19403062916867E-015, 0.000000000000000, -1.00000000000000 ) );
#311 = DIRECTION( '', ( -1.00000000000000, 0.000000000000000, 1.19403062916867E-015 ) );
#312 = CARTESIAN_POINT( '', ( -4.31278851439875E-015, 0.000000000000000, 2.78744882865309 ) );
#313 = DIRECTION( '', ( -1.19403062916867E-015, 0.000000000000000, -1.00000000000000 ) );
#314 = DIRECTION( '', ( -1.00000000000000, 0.000000000000000, 1.19403062916867E-015 ) );
#315 = CARTESIAN_POINT( '', ( -1.06261643659725E-014, 0.000000000000000, -2.50000000000000 ) );
#316 = DIRECTION( '', ( 1.18952466924124E-015, 5.35995049229082E-033, 1.00000000000000 ) );
#317 = DIRECTION( '', ( 1.00000000000000, 0.000000000000000, -1.18952466924124E-015 ) );
#318 = CARTESIAN_POINT( '', ( -2.80193618960639E-015, 0.000000000000000, 4.05278682575646 ) );
#319 = DIRECTION( '', ( -1.19403062916867E-015, 0.000000000000000, -1.00000000000000 ) );
#320 = DIRECTION( '', ( -1.00000000000000, 0.000000000000000, 1.19403062916867E-015 ) );
#321 = CARTESIAN_POINT( '', ( -4.28649913535266E-014, -6.84227765783602E-046, -30.5000000000000 ) );
#322 = DIRECTION( '', ( 1.21430643318376E-015, -2.47327048887578E-032, 1.00000000000000 ) );
#323 = DIRECTION( '', ( 1.00000000000000, -1.21430643318376E-015, -1.21430643318376E-015 ) );
#324 = CARTESIAN_POINT( '', ( -4.28649913535266E-014, 5.13170824337702E-046, -30.5000000000000 ) );
#325 = DIRECTION( '', ( 1.18952466924124E-015, 5.35995049229098E-033, 1.00000000000000 ) );
#326 = DIRECTION( '', ( 1.00000000000000, -1.18952466924124E-015, -1.18952466924124E-015 ) );
#327 = CARTESIAN_POINT( '', ( -5.02612754240199E-015, 0.000000000000000, 2.19002778217634 ) );
#328 = DIRECTION( '', ( -1.19403062916867E-015, 0.000000000000000, -1.00000000000000 ) );
#329 = DIRECTION( '', ( -1.00000000000000, 0.000000000000000, 1.19403062916867E-015 ) );
ENDSEC;
END-ISO-10303-21;
