ISO-10303-21;
HEADER;
/* Generated by software containing ST-Developer
 * from STEP Tools, Inc. (www.steptools.com) 
 */
/* OPTION: strings as raw bytes, not using required /X/ escapes */

FILE_DESCRIPTION(
/* description */ ('Unknown'),
/* implementation_level */ '2;1');

FILE_NAME(
/* name */ 'F21DN22',
/* time_stamp */ '2016-07-07T13:20:35+02:00',
/* author */ ('Unknown'),
/* organization */ ('Unknown'),
/* preprocessor_version */ 'ST-DEVELOPER v16',
/* originating_system */ 'DEX',
/* authorisation */ $);

FILE_SCHEMA (('AUTOMOTIVE_DESIGN {1 0 10303 214 3 1 1}'));
ENDSEC;

DATA;
#10=PROPERTY_DEFINITION_REPRESENTATION(#14,#12);
#11=PROPERTY_DEFINITION_REPRESENTATION(#15,#13);
#12=REPRESENTATION('',(#16),#251);
#13=REPRESENTATION('',(#17),#251);
#14=PROPERTY_DEFINITION('pmi validation property','',#256);
#15=PROPERTY_DEFINITION('pmi validation property','',#256);
#16=VALUE_REPRESENTATION_ITEM('number of annotations',COUNT_MEASURE(0.));
#17=VALUE_REPRESENTATION_ITEM('number of views',COUNT_MEASURE(0.));
#18=SHAPE_REPRESENTATION_RELATIONSHIP('','',#147,#19);
#19=ADVANCED_BREP_SHAPE_REPRESENTATION('',(#145),#251);
#20=ORIENTED_CLOSED_SHELL('',*,#136,.F.);
#21=CONICAL_SURFACE('',#163,12.,0.785398163397449);
#22=TOROIDAL_SURFACE('',#156,10.05,2.2);
#23=TOROIDAL_SURFACE('',#167,10.05,0.700000000000001);
#24=SPHERICAL_SURFACE('',#154,22.);
#25=SPHERICAL_SURFACE('',#169,20.5);
#26=CYLINDRICAL_SURFACE('',#152,13.5);
#27=CYLINDRICAL_SURFACE('',#158,12.25);
#28=CYLINDRICAL_SURFACE('',#160,11.);
#29=CYLINDRICAL_SURFACE('',#164,10.75);
#30=ORIENTED_EDGE('',*,*,#50,.F.);
#31=ORIENTED_EDGE('',*,*,#51,.T.);
#32=ORIENTED_EDGE('',*,*,#52,.T.);
#33=ORIENTED_EDGE('',*,*,#50,.T.);
#34=ORIENTED_EDGE('',*,*,#53,.F.);
#35=ORIENTED_EDGE('',*,*,#54,.F.);
#36=ORIENTED_EDGE('',*,*,#53,.T.);
#37=ORIENTED_EDGE('',*,*,#55,.T.);
#38=ORIENTED_EDGE('',*,*,#54,.T.);
#39=ORIENTED_EDGE('',*,*,#56,.T.);
#40=ORIENTED_EDGE('',*,*,#51,.F.);
#41=ORIENTED_EDGE('',*,*,#56,.F.);
#42=ORIENTED_EDGE('',*,*,#52,.F.);
#43=ORIENTED_EDGE('',*,*,#55,.F.);
#44=ORIENTED_EDGE('',*,*,#57,.F.);
#45=ORIENTED_EDGE('',*,*,#58,.T.);
#46=ORIENTED_EDGE('',*,*,#59,.F.);
#47=ORIENTED_EDGE('',*,*,#57,.T.);
#48=ORIENTED_EDGE('',*,*,#59,.T.);
#49=ORIENTED_EDGE('',*,*,#58,.F.);
#50=EDGE_CURVE('',#60,#60,#70,.T.);
#51=EDGE_CURVE('',#61,#61,#71,.T.);
#52=EDGE_CURVE('',#62,#62,#72,.F.);
#53=EDGE_CURVE('',#63,#63,#73,.T.);
#54=EDGE_CURVE('',#64,#64,#74,.T.);
#55=EDGE_CURVE('',#65,#65,#75,.F.);
#56=EDGE_CURVE('',#66,#66,#76,.T.);
#57=EDGE_CURVE('',#67,#67,#77,.T.);
#58=EDGE_CURVE('',#68,#68,#78,.F.);
#59=EDGE_CURVE('',#69,#69,#79,.T.);
#60=VERTEX_POINT('',#220);
#61=VERTEX_POINT('',#222);
#62=VERTEX_POINT('',#225);
#63=VERTEX_POINT('',#228);
#64=VERTEX_POINT('',#231);
#65=VERTEX_POINT('',#234);
#66=VERTEX_POINT('',#237);
#67=VERTEX_POINT('',#242);
#68=VERTEX_POINT('',#244);
#69=VERTEX_POINT('',#247);
#70=CIRCLE('',#150,13.5);
#71=CIRCLE('',#151,11.);
#72=CIRCLE('',#153,13.5);
#73=CIRCLE('',#155,11.1666666666667);
#74=CIRCLE('',#157,12.25);
#75=CIRCLE('',#159,12.25);
#76=CIRCLE('',#161,11.);
#77=CIRCLE('',#165,10.75);
#78=CIRCLE('',#166,10.75);
#79=CIRCLE('',#168,10.405303030303);
#80=EDGE_LOOP('',(#30));
#81=EDGE_LOOP('',(#31));
#82=EDGE_LOOP('',(#32));
#83=EDGE_LOOP('',(#33));
#84=EDGE_LOOP('',(#34));
#85=EDGE_LOOP('',(#35));
#86=EDGE_LOOP('',(#36));
#87=EDGE_LOOP('',(#37));
#88=EDGE_LOOP('',(#38));
#89=EDGE_LOOP('',(#39));
#90=EDGE_LOOP('',(#40));
#91=EDGE_LOOP('',(#41));
#92=EDGE_LOOP('',(#42));
#93=EDGE_LOOP('',(#43));
#94=EDGE_LOOP('',(#44));
#95=EDGE_LOOP('',(#45));
#96=EDGE_LOOP('',(#46));
#97=EDGE_LOOP('',(#47));
#98=EDGE_LOOP('',(#48));
#99=EDGE_LOOP('',(#49));
#100=FACE_BOUND('',#80,.T.);
#101=FACE_BOUND('',#81,.T.);
#102=FACE_BOUND('',#82,.T.);
#103=FACE_BOUND('',#83,.T.);
#104=FACE_BOUND('',#84,.T.);
#105=FACE_BOUND('',#85,.T.);
#106=FACE_BOUND('',#86,.T.);
#107=FACE_BOUND('',#87,.T.);
#108=FACE_BOUND('',#88,.T.);
#109=FACE_BOUND('',#89,.T.);
#110=FACE_BOUND('',#90,.T.);
#111=FACE_BOUND('',#91,.T.);
#112=FACE_BOUND('',#92,.T.);
#113=FACE_BOUND('',#93,.T.);
#114=FACE_BOUND('',#94,.T.);
#115=FACE_BOUND('',#95,.T.);
#116=FACE_BOUND('',#96,.T.);
#117=FACE_BOUND('',#97,.T.);
#118=FACE_BOUND('',#98,.T.);
#119=FACE_BOUND('',#99,.T.);
#120=PLANE('',#149);
#121=PLANE('',#162);
#122=PLANE('',#170);
#123=ADVANCED_FACE('',(#100,#101),#120,.F.);
#124=ADVANCED_FACE('',(#102,#103),#26,.T.);
#125=ADVANCED_FACE('',(#104),#24,.T.);
#126=ADVANCED_FACE('',(#105,#106),#22,.T.);
#127=ADVANCED_FACE('',(#107,#108),#27,.T.);
#128=ADVANCED_FACE('',(#109,#110),#28,.F.);
#129=ADVANCED_FACE('',(#111),#121,.F.);
#130=ADVANCED_FACE('',(#112,#113),#21,.T.);
#131=ADVANCED_FACE('',(#114,#115),#29,.F.);
#132=ADVANCED_FACE('',(#116,#117),#23,.F.);
#133=ADVANCED_FACE('',(#118),#25,.F.);
#134=ADVANCED_FACE('',(#119),#122,.T.);
#135=CLOSED_SHELL('',(#123,#124,#125,#126,#127,#128,#129,#130));
#136=CLOSED_SHELL('',(#131,#132,#133,#134));
#137=STYLED_ITEM('',(#138),#145);
#138=PRESENTATION_STYLE_ASSIGNMENT((#139));
#139=SURFACE_STYLE_USAGE(.BOTH.,#140);
#140=SURFACE_SIDE_STYLE('',(#141));
#141=SURFACE_STYLE_FILL_AREA(#142);
#142=FILL_AREA_STYLE('',(#143));
#143=FILL_AREA_STYLE_COLOUR('',#144);
#144=COLOUR_RGB('',0.119999997317791,0.75,0.119999997317791);
#145=BREP_WITH_VOIDS('',#135,(#20));
#146=SHAPE_DEFINITION_REPRESENTATION(#256,#147);
#147=SHAPE_REPRESENTATION('F21DN22',(#148),#251);
#148=AXIS2_PLACEMENT_3D('',#217,#171,#172);
#149=AXIS2_PLACEMENT_3D('',#218,#173,#174);
#150=AXIS2_PLACEMENT_3D('',#219,#175,#176);
#151=AXIS2_PLACEMENT_3D('',#221,#177,#178);
#152=AXIS2_PLACEMENT_3D('',#223,#179,#180);
#153=AXIS2_PLACEMENT_3D('',#224,#181,#182);
#154=AXIS2_PLACEMENT_3D('',#226,#183,#184);
#155=AXIS2_PLACEMENT_3D('',#227,#185,#186);
#156=AXIS2_PLACEMENT_3D('',#229,#187,#188);
#157=AXIS2_PLACEMENT_3D('',#230,#189,#190);
#158=AXIS2_PLACEMENT_3D('',#232,#191,#192);
#159=AXIS2_PLACEMENT_3D('',#233,#193,#194);
#160=AXIS2_PLACEMENT_3D('',#235,#195,#196);
#161=AXIS2_PLACEMENT_3D('',#236,#197,#198);
#162=AXIS2_PLACEMENT_3D('',#238,#199,#200);
#163=AXIS2_PLACEMENT_3D('',#239,#201,#202);
#164=AXIS2_PLACEMENT_3D('',#240,#203,#204);
#165=AXIS2_PLACEMENT_3D('',#241,#205,#206);
#166=AXIS2_PLACEMENT_3D('',#243,#207,#208);
#167=AXIS2_PLACEMENT_3D('',#245,#209,#210);
#168=AXIS2_PLACEMENT_3D('',#246,#211,#212);
#169=AXIS2_PLACEMENT_3D('',#248,#213,#214);
#170=AXIS2_PLACEMENT_3D('',#249,#215,#216);
#171=DIRECTION('',(0.,0.,1.));
#172=DIRECTION('',(1.,0.,0.));
#173=DIRECTION('',(0.,0.,1.));
#174=DIRECTION('',(1.,0.,0.));
#175=DIRECTION('',(0.,0.,1.));
#176=DIRECTION('',(1.,0.,0.));
#177=DIRECTION('',(0.,0.,1.));
#178=DIRECTION('',(1.,0.,0.));
#179=DIRECTION('',(0.,0.,1.));
#180=DIRECTION('',(1.,0.,0.));
#181=DIRECTION('',(0.,0.,1.));
#182=DIRECTION('',(1.,0.,0.));
#183=DIRECTION('',(0.,0.,-1.));
#184=DIRECTION('',(-1.,0.,0.));
#185=DIRECTION('',(0.,0.,-1.));
#186=DIRECTION('',(-1.,0.,0.));
#187=DIRECTION('',(0.,0.,-1.));
#188=DIRECTION('',(-1.,0.,0.));
#189=DIRECTION('',(0.,0.,-1.));
#190=DIRECTION('',(-1.,0.,0.));
#191=DIRECTION('',(0.,0.,-1.));
#192=DIRECTION('',(-1.,0.,0.));
#193=DIRECTION('',(0.,0.,-1.));
#194=DIRECTION('',(-1.,0.,0.));
#195=DIRECTION('',(0.,0.,-1.));
#196=DIRECTION('',(-1.,0.,0.));
#197=DIRECTION('',(0.,0.,1.));
#198=DIRECTION('',(1.,0.,0.));
#199=DIRECTION('',(0.,0.,1.));
#200=DIRECTION('',(1.,0.,0.));
#201=DIRECTION('',(0.,0.,-1.));
#202=DIRECTION('',(-1.,0.,0.));
#203=DIRECTION('',(0.,0.,-1.));
#204=DIRECTION('',(-1.,0.,0.));
#205=DIRECTION('',(0.,0.,-1.));
#206=DIRECTION('',(-1.,0.,0.));
#207=DIRECTION('',(0.,0.,1.));
#208=DIRECTION('',(1.,0.,0.));
#209=DIRECTION('',(0.,0.,-1.));
#210=DIRECTION('',(-1.,0.,0.));
#211=DIRECTION('',(0.,0.,-1.));
#212=DIRECTION('',(-1.,0.,0.));
#213=DIRECTION('',(0.,0.,-1.));
#214=DIRECTION('',(-1.,0.,0.));
#215=DIRECTION('',(0.,0.,1.));
#216=DIRECTION('',(1.,0.,0.));
#217=CARTESIAN_POINT('',(0.,0.,0.));
#218=CARTESIAN_POINT('',(0.,0.,-27.0479320432583));
#219=CARTESIAN_POINT('',(0.,0.,-27.0479320432583));
#220=CARTESIAN_POINT('',(13.5,0.,-27.0479320432583));
#221=CARTESIAN_POINT('',(0.,0.,-27.0479320432583));
#222=CARTESIAN_POINT('',(11.,0.,-27.0479320432583));
#223=CARTESIAN_POINT('',(0.,0.,-25.4479320432583));
#224=CARTESIAN_POINT('',(0.,0.,0.65206795674173));
#225=CARTESIAN_POINT('',(13.5,0.,0.65206795674173));
#226=CARTESIAN_POINT('',(0.,0.,-7.34793204325827));
#227=CARTESIAN_POINT('',(0.,0.,11.6074248659523));
#228=CARTESIAN_POINT('',(-11.1666666666667,0.,11.6074248659523));
#229=CARTESIAN_POINT('',(0.,0.,9.71188917503121));
#230=CARTESIAN_POINT('',(0.,0.,9.71188917503121));
#231=CARTESIAN_POINT('',(-12.25,0.,9.71188917503121));
#232=CARTESIAN_POINT('',(0.,0.,-0.460676210245432));
#233=CARTESIAN_POINT('',(0.,0.,1.90206795674173));
#234=CARTESIAN_POINT('',(-12.25,0.,1.90206795674173));
#235=CARTESIAN_POINT('',(0.,0.,-6.04793204325827));
#236=CARTESIAN_POINT('',(0.,0.,-6.04793204325827));
#237=CARTESIAN_POINT('',(11.,0.,-6.04793204325827));
#238=CARTESIAN_POINT('',(0.,0.,-6.04793204325827));
#239=CARTESIAN_POINT('',(0.,0.,2.15206795674173));
#240=CARTESIAN_POINT('',(0.,0.,-0.460676210245432));
#241=CARTESIAN_POINT('',(0.,0.,9.71188917503121));
#242=CARTESIAN_POINT('',(-10.75,0.,9.71188917503121));
#243=CARTESIAN_POINT('',(0.,0.,2.15206795674173));
#244=CARTESIAN_POINT('',(10.75,0.,2.15206795674173));
#245=CARTESIAN_POINT('',(0.,0.,9.71188917503121));
#246=CARTESIAN_POINT('',(0.,0.,10.315014167597));
#247=CARTESIAN_POINT('',(-10.405303030303,0.,10.315014167597));
#248=CARTESIAN_POINT('',(0.,0.,-7.34793204325827));
#249=CARTESIAN_POINT('',(0.,0.,2.15206795674173));
#250=MECHANICAL_DESIGN_GEOMETRIC_PRESENTATION_REPRESENTATION('',(#137),
#251);
#251=(
GEOMETRIC_REPRESENTATION_CONTEXT(3)
GLOBAL_UNCERTAINTY_ASSIGNED_CONTEXT((#252))
GLOBAL_UNIT_ASSIGNED_CONTEXT((#255,#254,#253))
REPRESENTATION_CONTEXT('F21DN22','TOP_LEVEL_ASSEMBLY_PART')
);
#252=UNCERTAINTY_MEASURE_WITH_UNIT(LENGTH_MEASURE(0.005),#255,
'DISTANCE_ACCURACY_VALUE','Maximum Tolerance applied to model');
#253=(
NAMED_UNIT(*)
SI_UNIT($,.STERADIAN.)
SOLID_ANGLE_UNIT()
);
#254=(
NAMED_UNIT(*)
PLANE_ANGLE_UNIT()
SI_UNIT($,.RADIAN.)
);
#255=(
LENGTH_UNIT()
NAMED_UNIT(*)
SI_UNIT(.MILLI.,.METRE.)
);
#256=PRODUCT_DEFINITION_SHAPE('','',#257);
#257=PRODUCT_DEFINITION('','',#259,#258);
#258=PRODUCT_DEFINITION_CONTEXT('',#265,'design');
#259=PRODUCT_DEFINITION_FORMATION_WITH_SPECIFIED_SOURCE('','',#261,
 .NOT_KNOWN.);
#260=PRODUCT_RELATED_PRODUCT_CATEGORY('','',(#261));
#261=PRODUCT('F21DN22','F21DN22','F21DN22',(#263));
#262=PRODUCT_CATEGORY('','');
#263=PRODUCT_CONTEXT('',#265,'mechanical');
#264=APPLICATION_PROTOCOL_DEFINITION('international standard',
'automotive_design',2010,#265);
#265=APPLICATION_CONTEXT(
'core data for automotive mechanical design processes');
ENDSEC;
END-ISO-10303-21;
