ISO-10303-21;
HEADER;
FILE_DESCRIPTION( ( 'Unknown' ), '1' );
FILE_NAME( '//Server/ofimatica/alfredo/Alfredo2/ISOTUBI/PZAS3D/FICHATECNICA/NUMEPRESS/generico 3D/F21DN42.stp', 'Unknown', ( 'Unknown' ), ( 'Unknown' ), 'PSStep 14.0', 'Unknown', '  ' );
FILE_SCHEMA( ( 'AUTOMOTIVE_DESIGN { 1 0 10303 214 1 1 1 1 }' ) );
ENDSEC;
DATA;
#1 = MECHANICAL_DESIGN_GEOMETRIC_PRESENTATION_REPRESENTATION( ' ', ( #10, #11, #12, #13, #14, #15, #16, #17, #18, #19, #20, #21, #22 ), #6 );
#2 = PRODUCT_DEFINITION_CONTEXT( '', #23, 'design' );
#3 = APPLICATION_PROTOCOL_DEFINITION( 'international standard', 'automotive_design', 2001, #23 );
#4 = PRODUCT_CATEGORY_RELATIONSHIP( 'NONE', 'NONE', #24, #25 );
#5 = SHAPE_DEFINITION_REPRESENTATION( #26, #27 );
#6 =  ( GEOMETRIC_REPRESENTATION_CONTEXT( 3 )GLOBAL_UNCERTAINTY_ASSIGNED_CONTEXT( ( #30 ) )GLOBAL_UNIT_ASSIGNED_CONTEXT( ( #32, #33, #34 ) )REPRESENTATION_CONTEXT( 'NONE', 'WORKSPACE' ) );
#10 = STYLED_ITEM( '', ( #36 ), #37 );
#11 = STYLED_ITEM( '', ( #38 ), #39 );
#12 = STYLED_ITEM( '', ( #40 ), #41 );
#13 = STYLED_ITEM( '', ( #42 ), #43 );
#14 = STYLED_ITEM( '', ( #44 ), #45 );
#15 = STYLED_ITEM( '', ( #46 ), #47 );
#16 = STYLED_ITEM( '', ( #48 ), #49 );
#17 = STYLED_ITEM( '', ( #50 ), #51 );
#18 = STYLED_ITEM( '', ( #52 ), #53 );
#19 = STYLED_ITEM( '', ( #54 ), #55 );
#20 = STYLED_ITEM( '', ( #56 ), #57 );
#21 = STYLED_ITEM( '', ( #58 ), #59 );
#22 = STYLED_ITEM( '', ( #60 ), #61 );
#23 = APPLICATION_CONTEXT( 'core data for automotive mechanical design processes' );
#24 = PRODUCT_CATEGORY( 'part', 'NONE' );
#25 = PRODUCT_RELATED_PRODUCT_CATEGORY( 'detail', ' ', ( #62 ) );
#26 = PRODUCT_DEFINITION_SHAPE( 'NONE', 'NONE', #63 );
#27 = ADVANCED_BREP_SHAPE_REPRESENTATION( '1', ( #64, #65 ), #6 );
#30 = UNCERTAINTY_MEASURE_WITH_UNIT( LENGTH_MEASURE( 0.00100000000000000 ), #32, '', '' );
#32 =  ( CONVERSION_BASED_UNIT( 'MILLIMETRE', #68 )LENGTH_UNIT(  )NAMED_UNIT( #71 ) );
#33 =  ( NAMED_UNIT( #73 )PLANE_ANGLE_UNIT(  )SI_UNIT( $, .RADIAN. ) );
#34 =  ( NAMED_UNIT( #73 )SI_UNIT( $, .STERADIAN. )SOLID_ANGLE_UNIT(  ) );
#36 = PRESENTATION_STYLE_ASSIGNMENT( ( #79 ) );
#37 = ADVANCED_FACE( '', ( #80, #81 ), #82, .T. );
#38 = PRESENTATION_STYLE_ASSIGNMENT( ( #83 ) );
#39 = ADVANCED_FACE( '', ( #84, #85 ), #86, .T. );
#40 = PRESENTATION_STYLE_ASSIGNMENT( ( #87 ) );
#41 = ADVANCED_FACE( '', ( #88 ), #89, .F. );
#42 = PRESENTATION_STYLE_ASSIGNMENT( ( #90 ) );
#43 = ADVANCED_FACE( '', ( #91, #92 ), #93, .T. );
#44 = PRESENTATION_STYLE_ASSIGNMENT( ( #94 ) );
#45 = ADVANCED_FACE( '', ( #95, #96 ), #97, .F. );
#46 = PRESENTATION_STYLE_ASSIGNMENT( ( #98 ) );
#47 = ADVANCED_FACE( '', ( #99, #100 ), #101, .T. );
#48 = PRESENTATION_STYLE_ASSIGNMENT( ( #102 ) );
#49 = ADVANCED_FACE( '', ( #103 ), #104, .T. );
#50 = PRESENTATION_STYLE_ASSIGNMENT( ( #105 ) );
#51 = ADVANCED_FACE( '', ( #106, #107 ), #108, .T. );
#52 = PRESENTATION_STYLE_ASSIGNMENT( ( #109 ) );
#53 = ADVANCED_FACE( '', ( #110 ), #111, .T. );
#54 = PRESENTATION_STYLE_ASSIGNMENT( ( #112 ) );
#55 = ADVANCED_FACE( '', ( #113, #114 ), #115, .F. );
#56 = PRESENTATION_STYLE_ASSIGNMENT( ( #116 ) );
#57 = ADVANCED_FACE( '', ( #117 ), #118, .F. );
#58 = PRESENTATION_STYLE_ASSIGNMENT( ( #119 ) );
#59 = ADVANCED_FACE( '', ( #120, #121 ), #122, .F. );
#60 = PRESENTATION_STYLE_ASSIGNMENT( ( #123 ) );
#61 = ADVANCED_FACE( '', ( #124, #125 ), #126, .F. );
#62 = PRODUCT( '1', '1', 'PART-1-DESC', ( #127 ) );
#63 = PRODUCT_DEFINITION( 'NONE', 'NONE', #128, #2 );
#64 = BREP_WITH_VOIDS( '1', #129, ( #130 ) );
#65 = AXIS2_PLACEMENT_3D( '', #131, #132, #133 );
#68 = LENGTH_MEASURE_WITH_UNIT( LENGTH_MEASURE( 1.00000000000000 ), #134 );
#71 = DIMENSIONAL_EXPONENTS( 1.00000000000000, 0.000000000000000, 0.000000000000000, 0.000000000000000, 0.000000000000000, 0.000000000000000, 0.000000000000000 );
#73 = DIMENSIONAL_EXPONENTS( 0.000000000000000, 0.000000000000000, 0.000000000000000, 0.000000000000000, 0.000000000000000, 0.000000000000000, 0.000000000000000 );
#79 = SURFACE_STYLE_USAGE( .BOTH., #135 );
#80 = FACE_OUTER_BOUND( '', #136, .T. );
#81 = FACE_BOUND( '', #137, .T. );
#82 = CONICAL_SURFACE( '', #138, 22.0000000000000, 0.785398163397448 );
#83 = SURFACE_STYLE_USAGE( .BOTH., #139 );
#84 = FACE_OUTER_BOUND( '', #140, .T. );
#85 = FACE_OUTER_BOUND( '', #141, .T. );
#86 = CYLINDRICAL_SURFACE( '', #142, 21.0000000000000 );
#87 = SURFACE_STYLE_USAGE( .BOTH., #143 );
#88 = FACE_OUTER_BOUND( '', #144, .T. );
#89 = PLANE( '', #145 );
#90 = SURFACE_STYLE_USAGE( .BOTH., #146 );
#91 = FACE_OUTER_BOUND( '', #147, .T. );
#92 = FACE_OUTER_BOUND( '', #148, .T. );
#93 = CYLINDRICAL_SURFACE( '', #149, 23.5000000000000 );
#94 = SURFACE_STYLE_USAGE( .BOTH., #150 );
#95 = FACE_OUTER_BOUND( '', #151, .T. );
#96 = FACE_OUTER_BOUND( '', #152, .T. );
#97 = TOROIDAL_SURFACE( '', #153, 16.8000000000000, 2.70000000000000 );
#98 = SURFACE_STYLE_USAGE( .BOTH., #154 );
#99 = FACE_OUTER_BOUND( '', #155, .T. );
#100 = FACE_BOUND( '', #156, .T. );
#101 = PLANE( '', #157 );
#102 = SURFACE_STYLE_USAGE( .BOTH., #158 );
#103 = FACE_OUTER_BOUND( '', #159, .T. );
#104 = PLANE( '', #160 );
#105 = SURFACE_STYLE_USAGE( .BOTH., #161 );
#106 = FACE_OUTER_BOUND( '', #162, .T. );
#107 = FACE_OUTER_BOUND( '', #163, .T. );
#108 = TOROIDAL_SURFACE( '', #164, 16.8000000000000, 4.20000000000000 );
#109 = SURFACE_STYLE_USAGE( .BOTH., #165 );
#110 = FACE_OUTER_BOUND( '', #166, .T. );
#111 = SPHERICAL_SURFACE( '', #167, 42.0000000000000 );
#112 = SURFACE_STYLE_USAGE( .BOTH., #168 );
#113 = FACE_OUTER_BOUND( '', #169, .T. );
#114 = FACE_OUTER_BOUND( '', #170, .T. );
#115 = CYLINDRICAL_SURFACE( '', #171, 21.0000000000000 );
#116 = SURFACE_STYLE_USAGE( .BOTH., #172 );
#117 = FACE_OUTER_BOUND( '', #173, .T. );
#118 = SPHERICAL_SURFACE( '', #174, 40.5000000000000 );
#119 = SURFACE_STYLE_USAGE( .BOTH., #175 );
#120 = FACE_OUTER_BOUND( '', #176, .T. );
#121 = FACE_BOUND( '', #177, .T. );
#122 = PLANE( '', #178 );
#123 = SURFACE_STYLE_USAGE( .BOTH., #179 );
#124 = FACE_OUTER_BOUND( '', #180, .T. );
#125 = FACE_OUTER_BOUND( '', #181, .T. );
#126 = CYLINDRICAL_SURFACE( '', #182, 19.5000000000000 );
#127 = PRODUCT_CONTEXT( '', #23, 'mechanical' );
#128 = PRODUCT_DEFINITION_FORMATION_WITH_SPECIFIED_SOURCE( ' ', 'NONE', #62, .NOT_KNOWN. );
#129 = CLOSED_SHELL( '', ( #59, #37, #55, #41, #39, #47, #43, #53, #51 ) );
#130 = ORIENTED_CLOSED_SHELL( '', *, #183, .T. );
#131 = CARTESIAN_POINT( '', ( 0.000000000000000, 0.000000000000000, 0.000000000000000 ) );
#132 = DIRECTION( '', ( 0.000000000000000, 0.000000000000000, 1.00000000000000 ) );
#133 = DIRECTION( '', ( 1.00000000000000, 0.000000000000000, 0.000000000000000 ) );
#134 =  ( LENGTH_UNIT(  )NAMED_UNIT( #71 )SI_UNIT( .MILLI., .METRE. ) );
#135 = SURFACE_SIDE_STYLE( '', ( #185 ) );
#136 = EDGE_LOOP( '', ( #186 ) );
#137 = EDGE_LOOP( '', ( #187 ) );
#138 = AXIS2_PLACEMENT_3D( '', #188, #189, #190 );
#139 = SURFACE_SIDE_STYLE( '', ( #191 ) );
#140 = EDGE_LOOP( '', ( #192 ) );
#141 = EDGE_LOOP( '', ( #193 ) );
#142 = AXIS2_PLACEMENT_3D( '', #194, #195, #196 );
#143 = SURFACE_SIDE_STYLE( '', ( #197 ) );
#144 = EDGE_LOOP( '', ( #198 ) );
#145 = AXIS2_PLACEMENT_3D( '', #199, #200, #201 );
#146 = SURFACE_SIDE_STYLE( '', ( #202 ) );
#147 = EDGE_LOOP( '', ( #203 ) );
#148 = EDGE_LOOP( '', ( #204 ) );
#149 = AXIS2_PLACEMENT_3D( '', #205, #206, #207 );
#150 = SURFACE_SIDE_STYLE( '', ( #208 ) );
#151 = EDGE_LOOP( '', ( #209 ) );
#152 = EDGE_LOOP( '', ( #210 ) );
#153 = AXIS2_PLACEMENT_3D( '', #211, #212, #213 );
#154 = SURFACE_SIDE_STYLE( '', ( #214 ) );
#155 = EDGE_LOOP( '', ( #215 ) );
#156 = EDGE_LOOP( '', ( #216 ) );
#157 = AXIS2_PLACEMENT_3D( '', #217, #218, #219 );
#158 = SURFACE_SIDE_STYLE( '', ( #220 ) );
#159 = EDGE_LOOP( '', ( #221 ) );
#160 = AXIS2_PLACEMENT_3D( '', #222, #223, #224 );
#161 = SURFACE_SIDE_STYLE( '', ( #225 ) );
#162 = EDGE_LOOP( '', ( #226 ) );
#163 = EDGE_LOOP( '', ( #227 ) );
#164 = AXIS2_PLACEMENT_3D( '', #228, #229, #230 );
#165 = SURFACE_SIDE_STYLE( '', ( #231 ) );
#166 = EDGE_LOOP( '', ( #232 ) );
#167 = AXIS2_PLACEMENT_3D( '', #233, #234, #235 );
#168 = SURFACE_SIDE_STYLE( '', ( #236 ) );
#169 = EDGE_LOOP( '', ( #237 ) );
#170 = EDGE_LOOP( '', ( #238 ) );
#171 = AXIS2_PLACEMENT_3D( '', #239, #240, #241 );
#172 = SURFACE_SIDE_STYLE( '', ( #242 ) );
#173 = EDGE_LOOP( '', ( #243 ) );
#174 = AXIS2_PLACEMENT_3D( '', #244, #245, #246 );
#175 = SURFACE_SIDE_STYLE( '', ( #247 ) );
#176 = EDGE_LOOP( '', ( #248 ) );
#177 = EDGE_LOOP( '', ( #249 ) );
#178 = AXIS2_PLACEMENT_3D( '', #250, #251, #252 );
#179 = SURFACE_SIDE_STYLE( '', ( #253 ) );
#180 = EDGE_LOOP( '', ( #254 ) );
#181 = EDGE_LOOP( '', ( #255 ) );
#182 = AXIS2_PLACEMENT_3D( '', #256, #257, #258 );
#183 = CLOSED_SHELL( '', ( #49, #57, #45, #61 ) );
#185 = SURFACE_STYLE_FILL_AREA( #259 );
#186 = ORIENTED_EDGE( '', *, *, #260, .F. );
#187 = ORIENTED_EDGE( '', *, *, #261, .F. );
#188 = CARTESIAN_POINT( '', ( 0.000000000000000, 0.000000000000000, 15.0408808646186 ) );
#189 = DIRECTION( '', ( -0.000000000000000, 0.000000000000000, -1.00000000000000 ) );
#190 = DIRECTION( '', ( -1.00000000000000, 0.000000000000000, 0.000000000000000 ) );
#191 = SURFACE_STYLE_FILL_AREA( #262 );
#192 = ORIENTED_EDGE( '', *, *, #263, .F. );
#193 = ORIENTED_EDGE( '', *, *, #264, .T. );
#194 = CARTESIAN_POINT( '', ( 0.000000000000000, 0.000000000000000, -0.496889892222295 ) );
#195 = DIRECTION( '', ( -0.000000000000000, -0.000000000000000, 1.00000000000000 ) );
#196 = DIRECTION( '', ( -1.00000000000000, 0.000000000000000, 0.000000000000000 ) );
#197 = SURFACE_STYLE_FILL_AREA( #265 );
#198 = ORIENTED_EDGE( '', *, *, #266, .F. );
#199 = CARTESIAN_POINT( '', ( 0.000000000000000, 0.000000000000000, 7.04088086461855 ) );
#200 = DIRECTION( '', ( 0.000000000000000, 0.000000000000000, 1.00000000000000 ) );
#201 = DIRECTION( '', ( 1.00000000000000, 0.000000000000000, 0.000000000000000 ) );
#202 = SURFACE_STYLE_FILL_AREA( #267 );
#203 = ORIENTED_EDGE( '', *, *, #260, .T. );
#204 = ORIENTED_EDGE( '', *, *, #268, .T. );
#205 = CARTESIAN_POINT( '', ( 0.000000000000000, 0.000000000000000, -22.9591191353815 ) );
#206 = DIRECTION( '', ( -0.000000000000000, -0.000000000000000, -1.00000000000000 ) );
#207 = DIRECTION( '', ( 1.00000000000000, 0.000000000000000, 0.000000000000000 ) );
#208 = SURFACE_STYLE_FILL_AREA( #269 );
#209 = ORIENTED_EDGE( '', *, *, #270, .F. );
#210 = ORIENTED_EDGE( '', *, *, #271, .T. );
#211 = CARTESIAN_POINT( '', ( 0.000000000000000, 0.000000000000000, 20.5292964485261 ) );
#212 = DIRECTION( '', ( 0.000000000000000, 0.000000000000000, -1.00000000000000 ) );
#213 = DIRECTION( '', ( -1.00000000000000, 0.000000000000000, 0.000000000000000 ) );
#214 = SURFACE_STYLE_FILL_AREA( #272 );
#215 = ORIENTED_EDGE( '', *, *, #261, .T. );
#216 = ORIENTED_EDGE( '', *, *, #263, .T. );
#217 = CARTESIAN_POINT( '', ( 0.000000000000000, 0.000000000000000, 15.0408808646186 ) );
#218 = DIRECTION( '', ( 0.000000000000000, 0.000000000000000, 1.00000000000000 ) );
#219 = DIRECTION( '', ( 1.00000000000000, 0.000000000000000, 0.000000000000000 ) );
#220 = SURFACE_STYLE_FILL_AREA( #273 );
#221 = ORIENTED_EDGE( '', *, *, #274, .F. );
#222 = CARTESIAN_POINT( '', ( 0.000000000000000, 0.000000000000000, 15.0408808646186 ) );
#223 = DIRECTION( '', ( 0.000000000000000, 0.000000000000000, 1.00000000000000 ) );
#224 = DIRECTION( '', ( 1.00000000000000, 0.000000000000000, 0.000000000000000 ) );
#225 = SURFACE_STYLE_FILL_AREA( #275 );
#226 = ORIENTED_EDGE( '', *, *, #264, .F. );
#227 = ORIENTED_EDGE( '', *, *, #276, .T. );
#228 = CARTESIAN_POINT( '', ( 0.000000000000000, 0.000000000000000, 20.5292964485261 ) );
#229 = DIRECTION( '', ( 0.000000000000000, 0.000000000000000, -1.00000000000000 ) );
#230 = DIRECTION( '', ( -1.00000000000000, 0.000000000000000, 0.000000000000000 ) );
#231 = SURFACE_STYLE_FILL_AREA( #277 );
#232 = ORIENTED_EDGE( '', *, *, #276, .F. );
#233 = CARTESIAN_POINT( '', ( 0.000000000000000, 0.000000000000000, -13.3321860943279 ) );
#234 = DIRECTION( '', ( 0.000000000000000, 0.000000000000000, -1.00000000000000 ) );
#235 = DIRECTION( '', ( 1.00000000000000, 0.000000000000000, 0.000000000000000 ) );
#236 = SURFACE_STYLE_FILL_AREA( #278 );
#237 = ORIENTED_EDGE( '', *, *, #266, .T. );
#238 = ORIENTED_EDGE( '', *, *, #279, .F. );
#239 = CARTESIAN_POINT( '', ( 0.000000000000000, 0.000000000000000, 7.04088086461855 ) );
#240 = DIRECTION( '', ( -0.000000000000000, -0.000000000000000, 1.00000000000000 ) );
#241 = DIRECTION( '', ( -1.00000000000000, 0.000000000000000, 0.000000000000000 ) );
#242 = SURFACE_STYLE_FILL_AREA( #280 );
#243 = ORIENTED_EDGE( '', *, *, #270, .T. );
#244 = CARTESIAN_POINT( '', ( 0.000000000000000, 0.000000000000000, -13.3321860943279 ) );
#245 = DIRECTION( '', ( 0.000000000000000, 0.000000000000000, -1.00000000000000 ) );
#246 = DIRECTION( '', ( -1.00000000000000, 0.000000000000000, 0.000000000000000 ) );
#247 = SURFACE_STYLE_FILL_AREA( #281 );
#248 = ORIENTED_EDGE( '', *, *, #268, .F. );
#249 = ORIENTED_EDGE( '', *, *, #279, .T. );
#250 = CARTESIAN_POINT( '', ( 0.000000000000000, 0.000000000000000, -22.9591191353815 ) );
#251 = DIRECTION( '', ( 0.000000000000000, 0.000000000000000, 1.00000000000000 ) );
#252 = DIRECTION( '', ( 1.00000000000000, 0.000000000000000, 0.000000000000000 ) );
#253 = SURFACE_STYLE_FILL_AREA( #282 );
#254 = ORIENTED_EDGE( '', *, *, #271, .F. );
#255 = ORIENTED_EDGE( '', *, *, #274, .T. );
#256 = CARTESIAN_POINT( '', ( 0.000000000000000, 0.000000000000000, -0.496889892222295 ) );
#257 = DIRECTION( '', ( -0.000000000000000, -0.000000000000000, 1.00000000000000 ) );
#258 = DIRECTION( '', ( -1.00000000000000, 0.000000000000000, 0.000000000000000 ) );
#259 = FILL_AREA_STYLE( '', ( #283 ) );
#260 = EDGE_CURVE( '', #284, #284, #285, .F. );
#261 = EDGE_CURVE( '', #286, #286, #287, .T. );
#262 = FILL_AREA_STYLE( '', ( #288 ) );
#263 = EDGE_CURVE( '', #289, #289, #290, .T. );
#264 = EDGE_CURVE( '', #291, #291, #292, .T. );
#265 = FILL_AREA_STYLE( '', ( #293 ) );
#266 = EDGE_CURVE( '', #294, #294, #295, .T. );
#267 = FILL_AREA_STYLE( '', ( #296 ) );
#268 = EDGE_CURVE( '', #297, #297, #298, .T. );
#269 = FILL_AREA_STYLE( '', ( #299 ) );
#270 = EDGE_CURVE( '', #300, #300, #301, .T. );
#271 = EDGE_CURVE( '', #302, #302, #303, .T. );
#272 = FILL_AREA_STYLE( '', ( #304 ) );
#273 = FILL_AREA_STYLE( '', ( #305 ) );
#274 = EDGE_CURVE( '', #306, #306, #307, .F. );
#275 = FILL_AREA_STYLE( '', ( #308 ) );
#276 = EDGE_CURVE( '', #309, #309, #310, .T. );
#277 = FILL_AREA_STYLE( '', ( #311 ) );
#278 = FILL_AREA_STYLE( '', ( #312 ) );
#279 = EDGE_CURVE( '', #313, #313, #314, .T. );
#280 = FILL_AREA_STYLE( '', ( #315 ) );
#281 = FILL_AREA_STYLE( '', ( #316 ) );
#282 = FILL_AREA_STYLE( '', ( #317 ) );
#283 = FILL_AREA_STYLE_COLOUR( '', #318 );
#284 = VERTEX_POINT( '', #319 );
#285 = CIRCLE( '', #320, 23.5000000000000 );
#286 = VERTEX_POINT( '', #321 );
#287 = CIRCLE( '', #322, 22.0000000000000 );
#288 = FILL_AREA_STYLE_COLOUR( '', #323 );
#289 = VERTEX_POINT( '', #324 );
#290 = CIRCLE( '', #325, 21.0000000000000 );
#291 = VERTEX_POINT( '', #326 );
#292 = CIRCLE( '', #327, 21.0000000000000 );
#293 = FILL_AREA_STYLE_COLOUR( '', #328 );
#294 = VERTEX_POINT( '', #329 );
#295 = CIRCLE( '', #330, 21.0000000000000 );
#296 = FILL_AREA_STYLE_COLOUR( '', #331 );
#297 = VERTEX_POINT( '', #332 );
#298 = CIRCLE( '', #333, 23.5000000000000 );
#299 = FILL_AREA_STYLE_COLOUR( '', #334 );
#300 = VERTEX_POINT( '', #335 );
#301 = CIRCLE( '', #336, 18.0000000000000 );
#302 = VERTEX_POINT( '', #337 );
#303 = CIRCLE( '', #338, 19.5000000000000 );
#304 = FILL_AREA_STYLE_COLOUR( '', #339 );
#305 = FILL_AREA_STYLE_COLOUR( '', #340 );
#306 = VERTEX_POINT( '', #341 );
#307 = CIRCLE( '', #342, 19.5000000000000 );
#308 = FILL_AREA_STYLE_COLOUR( '', #343 );
#309 = VERTEX_POINT( '', #344 );
#310 = CIRCLE( '', #345, 18.6666666666667 );
#311 = FILL_AREA_STYLE_COLOUR( '', #346 );
#312 = FILL_AREA_STYLE_COLOUR( '', #347 );
#313 = VERTEX_POINT( '', #348 );
#314 = CIRCLE( '', #349, 21.0000000000000 );
#315 = FILL_AREA_STYLE_COLOUR( '', #350 );
#316 = FILL_AREA_STYLE_COLOUR( '', #351 );
#317 = FILL_AREA_STYLE_COLOUR( '', #352 );
#318 = COLOUR_RGB( '', 0.000000000000000, 0.517647087574005, 0.898039221763611 );
#319 = CARTESIAN_POINT( '', ( 23.5000000000000, 0.000000000000000, 13.5408808646185 ) );
#320 = AXIS2_PLACEMENT_3D( '', #353, #354, #355 );
#321 = CARTESIAN_POINT( '', ( 22.0000000000000, 0.000000000000000, 15.0408808646186 ) );
#322 = AXIS2_PLACEMENT_3D( '', #356, #357, #358 );
#323 = COLOUR_RGB( '', 0.000000000000000, 0.517647087574005, 0.898039221763611 );
#324 = CARTESIAN_POINT( '', ( -21.0000000000000, 0.000000000000000, 15.0408808646186 ) );
#325 = AXIS2_PLACEMENT_3D( '', #359, #360, #361 );
#326 = CARTESIAN_POINT( '', ( -21.0000000000000, 0.000000000000000, 20.5292964485261 ) );
#327 = AXIS2_PLACEMENT_3D( '', #362, #363, #364 );
#328 = COLOUR_RGB( '', 0.000000000000000, 0.517647087574005, 0.898039221763611 );
#329 = CARTESIAN_POINT( '', ( 21.0000000000000, 0.000000000000000, 7.04088086461855 ) );
#330 = AXIS2_PLACEMENT_3D( '', #365, #366, #367 );
#331 = COLOUR_RGB( '', 0.000000000000000, 0.517647087574005, 0.898039221763611 );
#332 = CARTESIAN_POINT( '', ( 23.5000000000000, 0.000000000000000, -22.9591191353815 ) );
#333 = AXIS2_PLACEMENT_3D( '', #368, #369, #370 );
#334 = COLOUR_RGB( '', 0.000000000000000, 0.517647087574005, 0.898039221763611 );
#335 = CARTESIAN_POINT( '', ( -18.0000000000000, 0.000000000000000, 22.9479737730156 ) );
#336 = AXIS2_PLACEMENT_3D( '', #371, #372, #373 );
#337 = CARTESIAN_POINT( '', ( -19.5000000000000, 0.000000000000000, 20.5292964485261 ) );
#338 = AXIS2_PLACEMENT_3D( '', #374, #375, #376 );
#339 = COLOUR_RGB( '', 0.000000000000000, 0.517647087574005, 0.898039221763611 );
#340 = COLOUR_RGB( '', 0.000000000000000, 0.517647087574005, 0.898039221763611 );
#341 = CARTESIAN_POINT( '', ( 19.5000000000000, 0.000000000000000, 15.0408808646186 ) );
#342 = AXIS2_PLACEMENT_3D( '', #377, #378, #379 );
#343 = COLOUR_RGB( '', 0.000000000000000, 0.517647087574005, 0.898039221763611 );
#344 = CARTESIAN_POINT( '', ( -18.6666666666667, 0.000000000000000, 24.2916833977321 ) );
#345 = AXIS2_PLACEMENT_3D( '', #380, #381, #382 );
#346 = COLOUR_RGB( '', 0.000000000000000, 0.517647087574005, 0.898039221763611 );
#347 = COLOUR_RGB( '', 0.000000000000000, 0.517647087574005, 0.898039221763611 );
#348 = CARTESIAN_POINT( '', ( 21.0000000000000, 0.000000000000000, -22.9591191353815 ) );
#349 = AXIS2_PLACEMENT_3D( '', #383, #384, #385 );
#350 = COLOUR_RGB( '', 0.000000000000000, 0.517647087574005, 0.898039221763611 );
#351 = COLOUR_RGB( '', 0.000000000000000, 0.517647087574005, 0.898039221763611 );
#352 = COLOUR_RGB( '', 0.000000000000000, 0.517647087574005, 0.898039221763611 );
#353 = CARTESIAN_POINT( '', ( 0.000000000000000, 0.000000000000000, 13.5408808646185 ) );
#354 = DIRECTION( '', ( 0.000000000000000, 0.000000000000000, 1.00000000000000 ) );
#355 = DIRECTION( '', ( 1.00000000000000, 0.000000000000000, 0.000000000000000 ) );
#356 = CARTESIAN_POINT( '', ( 0.000000000000000, 0.000000000000000, 15.0408808646186 ) );
#357 = DIRECTION( '', ( 0.000000000000000, 0.000000000000000, 1.00000000000000 ) );
#358 = DIRECTION( '', ( 1.00000000000000, 0.000000000000000, 0.000000000000000 ) );
#359 = CARTESIAN_POINT( '', ( 0.000000000000000, 0.000000000000000, 15.0408808646186 ) );
#360 = DIRECTION( '', ( 0.000000000000000, 0.000000000000000, -1.00000000000000 ) );
#361 = DIRECTION( '', ( -1.00000000000000, 0.000000000000000, 0.000000000000000 ) );
#362 = CARTESIAN_POINT( '', ( 0.000000000000000, 0.000000000000000, 20.5292964485261 ) );
#363 = DIRECTION( '', ( 0.000000000000000, 0.000000000000000, -1.00000000000000 ) );
#364 = DIRECTION( '', ( -1.00000000000000, 0.000000000000000, 0.000000000000000 ) );
#365 = CARTESIAN_POINT( '', ( 0.000000000000000, 0.000000000000000, 7.04088086461855 ) );
#366 = DIRECTION( '', ( 0.000000000000000, 0.000000000000000, 1.00000000000000 ) );
#367 = DIRECTION( '', ( 1.00000000000000, 0.000000000000000, 0.000000000000000 ) );
#368 = CARTESIAN_POINT( '', ( 0.000000000000000, 0.000000000000000, -22.9591191353815 ) );
#369 = DIRECTION( '', ( 0.000000000000000, 0.000000000000000, 1.00000000000000 ) );
#370 = DIRECTION( '', ( 1.00000000000000, 0.000000000000000, 0.000000000000000 ) );
#371 = CARTESIAN_POINT( '', ( 0.000000000000000, 0.000000000000000, 22.9479737730156 ) );
#372 = DIRECTION( '', ( 0.000000000000000, 0.000000000000000, -1.00000000000000 ) );
#373 = DIRECTION( '', ( -1.00000000000000, 0.000000000000000, 0.000000000000000 ) );
#374 = CARTESIAN_POINT( '', ( 0.000000000000000, 0.000000000000000, 20.5292964485261 ) );
#375 = DIRECTION( '', ( 0.000000000000000, 0.000000000000000, -1.00000000000000 ) );
#376 = DIRECTION( '', ( -1.00000000000000, 0.000000000000000, 0.000000000000000 ) );
#377 = CARTESIAN_POINT( '', ( 0.000000000000000, 0.000000000000000, 15.0408808646186 ) );
#378 = DIRECTION( '', ( 0.000000000000000, 0.000000000000000, 1.00000000000000 ) );
#379 = DIRECTION( '', ( 1.00000000000000, 0.000000000000000, 0.000000000000000 ) );
#380 = CARTESIAN_POINT( '', ( 0.000000000000000, 0.000000000000000, 24.2916833977321 ) );
#381 = DIRECTION( '', ( 0.000000000000000, 0.000000000000000, -1.00000000000000 ) );
#382 = DIRECTION( '', ( -1.00000000000000, 0.000000000000000, 0.000000000000000 ) );
#383 = CARTESIAN_POINT( '', ( 0.000000000000000, 0.000000000000000, -22.9591191353815 ) );
#384 = DIRECTION( '', ( 0.000000000000000, 0.000000000000000, 1.00000000000000 ) );
#385 = DIRECTION( '', ( 1.00000000000000, 0.000000000000000, 0.000000000000000 ) );
ENDSEC;
END-ISO-10303-21;
