ISO-10303-21;
HEADER;
FILE_DESCRIPTION( ( 'Unknown' ), '1' );
FILE_NAME( '//Server/ofimatica/alfredo/Alfredo2/ISOTUBI/PZAS3D/FICHATECNICA/NUMEPRESS/generico 3D/F21DN54.stp', 'Unknown', ( 'Unknown' ), ( 'Unknown' ), 'PSStep 14.0', 'Unknown', '  ' );
FILE_SCHEMA( ( 'AUTOMOTIVE_DESIGN { 1 0 10303 214 1 1 1 1 }' ) );
ENDSEC;
DATA;
#1 = MECHANICAL_DESIGN_GEOMETRIC_PRESENTATION_REPRESENTATION( ' ', ( #10, #11, #12, #13, #14, #15, #16, #17, #18, #19, #20, #21, #22 ), #6 );
#2 = PRODUCT_DEFINITION_CONTEXT( '', #23, 'design' );
#3 = APPLICATION_PROTOCOL_DEFINITION( 'international standard', 'automotive_design', 2001, #23 );
#4 = PRODUCT_CATEGORY_RELATIONSHIP( 'NONE', 'NONE', #24, #25 );
#5 = SHAPE_DEFINITION_REPRESENTATION( #26, #27 );
#6 =  ( GEOMETRIC_REPRESENTATION_CONTEXT( 3 )GLOBAL_UNCERTAINTY_ASSIGNED_CONTEXT( ( #30 ) )GLOBAL_UNIT_ASSIGNED_CONTEXT( ( #32, #33, #34 ) )REPRESENTATION_CONTEXT( 'NONE', 'WORKSPACE' ) );
#10 = STYLED_ITEM( '', ( #36 ), #37 );
#11 = STYLED_ITEM( '', ( #38 ), #39 );
#12 = STYLED_ITEM( '', ( #40 ), #41 );
#13 = STYLED_ITEM( '', ( #42 ), #43 );
#14 = STYLED_ITEM( '', ( #44 ), #45 );
#15 = STYLED_ITEM( '', ( #46 ), #47 );
#16 = STYLED_ITEM( '', ( #48 ), #49 );
#17 = STYLED_ITEM( '', ( #50 ), #51 );
#18 = STYLED_ITEM( '', ( #52 ), #53 );
#19 = STYLED_ITEM( '', ( #54 ), #55 );
#20 = STYLED_ITEM( '', ( #56 ), #57 );
#21 = STYLED_ITEM( '', ( #58 ), #59 );
#22 = STYLED_ITEM( '', ( #60 ), #61 );
#23 = APPLICATION_CONTEXT( 'core data for automotive mechanical design processes' );
#24 = PRODUCT_CATEGORY( 'part', 'NONE' );
#25 = PRODUCT_RELATED_PRODUCT_CATEGORY( 'detail', ' ', ( #62 ) );
#26 = PRODUCT_DEFINITION_SHAPE( 'NONE', 'NONE', #63 );
#27 = ADVANCED_BREP_SHAPE_REPRESENTATION( '1', ( #64, #65 ), #6 );
#30 = UNCERTAINTY_MEASURE_WITH_UNIT( LENGTH_MEASURE( 0.00100000000000000 ), #32, '', '' );
#32 =  ( CONVERSION_BASED_UNIT( 'MILLIMETRE', #68 )LENGTH_UNIT(  )NAMED_UNIT( #71 ) );
#33 =  ( NAMED_UNIT( #73 )PLANE_ANGLE_UNIT(  )SI_UNIT( $, .RADIAN. ) );
#34 =  ( NAMED_UNIT( #73 )SI_UNIT( $, .STERADIAN. )SOLID_ANGLE_UNIT(  ) );
#36 = PRESENTATION_STYLE_ASSIGNMENT( ( #79 ) );
#37 = ADVANCED_FACE( '', ( #80 ), #81, .F. );
#38 = PRESENTATION_STYLE_ASSIGNMENT( ( #82 ) );
#39 = ADVANCED_FACE( '', ( #83, #84 ), #85, .F. );
#40 = PRESENTATION_STYLE_ASSIGNMENT( ( #86 ) );
#41 = ADVANCED_FACE( '', ( #87, #88 ), #89, .T. );
#42 = PRESENTATION_STYLE_ASSIGNMENT( ( #90 ) );
#43 = ADVANCED_FACE( '', ( #91, #92 ), #93, .T. );
#44 = PRESENTATION_STYLE_ASSIGNMENT( ( #94 ) );
#45 = ADVANCED_FACE( '', ( #95 ), #96, .F. );
#46 = PRESENTATION_STYLE_ASSIGNMENT( ( #97 ) );
#47 = ADVANCED_FACE( '', ( #98, #99 ), #100, .T. );
#48 = PRESENTATION_STYLE_ASSIGNMENT( ( #101 ) );
#49 = ADVANCED_FACE( '', ( #102, #103 ), #104, .T. );
#50 = PRESENTATION_STYLE_ASSIGNMENT( ( #105 ) );
#51 = ADVANCED_FACE( '', ( #106 ), #107, .T. );
#52 = PRESENTATION_STYLE_ASSIGNMENT( ( #108 ) );
#53 = ADVANCED_FACE( '', ( #109, #110 ), #111, .F. );
#54 = PRESENTATION_STYLE_ASSIGNMENT( ( #112 ) );
#55 = ADVANCED_FACE( '', ( #113, #114 ), #115, .T. );
#56 = PRESENTATION_STYLE_ASSIGNMENT( ( #116 ) );
#57 = ADVANCED_FACE( '', ( #117, #118 ), #119, .F. );
#58 = PRESENTATION_STYLE_ASSIGNMENT( ( #120 ) );
#59 = ADVANCED_FACE( '', ( #121 ), #122, .T. );
#60 = PRESENTATION_STYLE_ASSIGNMENT( ( #123 ) );
#61 = ADVANCED_FACE( '', ( #124, #125 ), #126, .F. );
#62 = PRODUCT( '1', '1', 'PART-1-DESC', ( #127 ) );
#63 = PRODUCT_DEFINITION( 'NONE', 'NONE', #128, #2 );
#64 = BREP_WITH_VOIDS( '1', #129, ( #130 ) );
#65 = AXIS2_PLACEMENT_3D( '', #131, #132, #133 );
#68 = LENGTH_MEASURE_WITH_UNIT( LENGTH_MEASURE( 1.00000000000000 ), #134 );
#71 = DIMENSIONAL_EXPONENTS( 1.00000000000000, 0.000000000000000, 0.000000000000000, 0.000000000000000, 0.000000000000000, 0.000000000000000, 0.000000000000000 );
#73 = DIMENSIONAL_EXPONENTS( 0.000000000000000, 0.000000000000000, 0.000000000000000, 0.000000000000000, 0.000000000000000, 0.000000000000000, 0.000000000000000 );
#79 = SURFACE_STYLE_USAGE( .BOTH., #135 );
#80 = FACE_OUTER_BOUND( '', #136, .T. );
#81 = SPHERICAL_SURFACE( '', #137, 52.5000000000000 );
#82 = SURFACE_STYLE_USAGE( .BOTH., #138 );
#83 = FACE_OUTER_BOUND( '', #139, .T. );
#84 = FACE_OUTER_BOUND( '', #140, .T. );
#85 = TOROIDAL_SURFACE( '', #141, 21.5000000000000, 4.00000000000000 );
#86 = SURFACE_STYLE_USAGE( .BOTH., #142 );
#87 = FACE_OUTER_BOUND( '', #143, .T. );
#88 = FACE_BOUND( '', #144, .T. );
#89 = CONICAL_SURFACE( '', #145, 28.0000000000000, 0.785398163397448 );
#90 = SURFACE_STYLE_USAGE( .BOTH., #146 );
#91 = FACE_OUTER_BOUND( '', #147, .T. );
#92 = FACE_OUTER_BOUND( '', #148, .T. );
#93 = CYLINDRICAL_SURFACE( '', #149, 29.5000000000000 );
#94 = SURFACE_STYLE_USAGE( .BOTH., #150 );
#95 = FACE_OUTER_BOUND( '', #151, .T. );
#96 = PLANE( '', #152 );
#97 = SURFACE_STYLE_USAGE( .BOTH., #153 );
#98 = FACE_OUTER_BOUND( '', #154, .T. );
#99 = FACE_OUTER_BOUND( '', #155, .T. );
#100 = CYLINDRICAL_SURFACE( '', #156, 27.0000000000000 );
#101 = SURFACE_STYLE_USAGE( .BOTH., #157 );
#102 = FACE_OUTER_BOUND( '', #158, .T. );
#103 = FACE_OUTER_BOUND( '', #159, .T. );
#104 = TOROIDAL_SURFACE( '', #160, 21.5000000000000, 5.50000000000000 );
#105 = SURFACE_STYLE_USAGE( .BOTH., #161 );
#106 = FACE_OUTER_BOUND( '', #162, .T. );
#107 = SPHERICAL_SURFACE( '', #163, 54.0000000000000 );
#108 = SURFACE_STYLE_USAGE( .BOTH., #164 );
#109 = FACE_OUTER_BOUND( '', #165, .T. );
#110 = FACE_OUTER_BOUND( '', #166, .T. );
#111 = CYLINDRICAL_SURFACE( '', #167, 27.0000000000000 );
#112 = SURFACE_STYLE_USAGE( .BOTH., #168 );
#113 = FACE_OUTER_BOUND( '', #169, .T. );
#114 = FACE_BOUND( '', #170, .T. );
#115 = PLANE( '', #171 );
#116 = SURFACE_STYLE_USAGE( .BOTH., #172 );
#117 = FACE_OUTER_BOUND( '', #173, .T. );
#118 = FACE_BOUND( '', #174, .T. );
#119 = PLANE( '', #175 );
#120 = SURFACE_STYLE_USAGE( .BOTH., #176 );
#121 = FACE_OUTER_BOUND( '', #177, .T. );
#122 = PLANE( '', #178 );
#123 = SURFACE_STYLE_USAGE( .BOTH., #179 );
#124 = FACE_OUTER_BOUND( '', #180, .T. );
#125 = FACE_OUTER_BOUND( '', #181, .T. );
#126 = CYLINDRICAL_SURFACE( '', #182, 25.5000000000000 );
#127 = PRODUCT_CONTEXT( '', #23, 'mechanical' );
#128 = PRODUCT_DEFINITION_FORMATION_WITH_SPECIFIED_SOURCE( ' ', 'NONE', #62, .NOT_KNOWN. );
#129 = CLOSED_SHELL( '', ( #57, #41, #53, #45, #43, #51, #49, #55, #47 ) );
#130 = ORIENTED_CLOSED_SHELL( '', *, #183, .T. );
#131 = CARTESIAN_POINT( '', ( 0.000000000000000, 0.000000000000000, 0.000000000000000 ) );
#132 = DIRECTION( '', ( 0.000000000000000, 0.000000000000000, 1.00000000000000 ) );
#133 = DIRECTION( '', ( 1.00000000000000, 0.000000000000000, 0.000000000000000 ) );
#134 =  ( LENGTH_UNIT(  )NAMED_UNIT( #71 )SI_UNIT( .MILLI., .METRE. ) );
#135 = SURFACE_SIDE_STYLE( '', ( #185 ) );
#136 = EDGE_LOOP( '', ( #186 ) );
#137 = AXIS2_PLACEMENT_3D( '', #187, #188, #189 );
#138 = SURFACE_SIDE_STYLE( '', ( #190 ) );
#139 = EDGE_LOOP( '', ( #191 ) );
#140 = EDGE_LOOP( '', ( #192 ) );
#141 = AXIS2_PLACEMENT_3D( '', #193, #194, #195 );
#142 = SURFACE_SIDE_STYLE( '', ( #196 ) );
#143 = EDGE_LOOP( '', ( #197 ) );
#144 = EDGE_LOOP( '', ( #198 ) );
#145 = AXIS2_PLACEMENT_3D( '', #199, #200, #201 );
#146 = SURFACE_SIDE_STYLE( '', ( #202 ) );
#147 = EDGE_LOOP( '', ( #203 ) );
#148 = EDGE_LOOP( '', ( #204 ) );
#149 = AXIS2_PLACEMENT_3D( '', #205, #206, #207 );
#150 = SURFACE_SIDE_STYLE( '', ( #208 ) );
#151 = EDGE_LOOP( '', ( #209 ) );
#152 = AXIS2_PLACEMENT_3D( '', #210, #211, #212 );
#153 = SURFACE_SIDE_STYLE( '', ( #213 ) );
#154 = EDGE_LOOP( '', ( #214 ) );
#155 = EDGE_LOOP( '', ( #215 ) );
#156 = AXIS2_PLACEMENT_3D( '', #216, #217, #218 );
#157 = SURFACE_SIDE_STYLE( '', ( #219 ) );
#158 = EDGE_LOOP( '', ( #220 ) );
#159 = EDGE_LOOP( '', ( #221 ) );
#160 = AXIS2_PLACEMENT_3D( '', #222, #223, #224 );
#161 = SURFACE_SIDE_STYLE( '', ( #225 ) );
#162 = EDGE_LOOP( '', ( #226 ) );
#163 = AXIS2_PLACEMENT_3D( '', #227, #228, #229 );
#164 = SURFACE_SIDE_STYLE( '', ( #230 ) );
#165 = EDGE_LOOP( '', ( #231 ) );
#166 = EDGE_LOOP( '', ( #232 ) );
#167 = AXIS2_PLACEMENT_3D( '', #233, #234, #235 );
#168 = SURFACE_SIDE_STYLE( '', ( #236 ) );
#169 = EDGE_LOOP( '', ( #237 ) );
#170 = EDGE_LOOP( '', ( #238 ) );
#171 = AXIS2_PLACEMENT_3D( '', #239, #240, #241 );
#172 = SURFACE_SIDE_STYLE( '', ( #242 ) );
#173 = EDGE_LOOP( '', ( #243 ) );
#174 = EDGE_LOOP( '', ( #244 ) );
#175 = AXIS2_PLACEMENT_3D( '', #245, #246, #247 );
#176 = SURFACE_SIDE_STYLE( '', ( #248 ) );
#177 = EDGE_LOOP( '', ( #249 ) );
#178 = AXIS2_PLACEMENT_3D( '', #250, #251, #252 );
#179 = SURFACE_SIDE_STYLE( '', ( #253 ) );
#180 = EDGE_LOOP( '', ( #254 ) );
#181 = EDGE_LOOP( '', ( #255 ) );
#182 = AXIS2_PLACEMENT_3D( '', #256, #257, #258 );
#183 = CLOSED_SHELL( '', ( #59, #61, #39, #37 ) );
#185 = SURFACE_STYLE_FILL_AREA( #259 );
#186 = ORIENTED_EDGE( '', *, *, #260, .T. );
#187 = CARTESIAN_POINT( '', ( 0.000000000000000, 0.000000000000000, 0.000000000000000 ) );
#188 = DIRECTION( '', ( 0.000000000000000, 0.000000000000000, -1.00000000000000 ) );
#189 = DIRECTION( '', ( -1.00000000000000, 0.000000000000000, 0.000000000000000 ) );
#190 = SURFACE_STYLE_FILL_AREA( #261 );
#191 = ORIENTED_EDGE( '', *, *, #260, .F. );
#192 = ORIENTED_EDGE( '', *, *, #262, .T. );
#193 = CARTESIAN_POINT( '', ( 0.000000000000000, 0.000000000000000, 43.4741302385683 ) );
#194 = DIRECTION( '', ( 0.000000000000000, 0.000000000000000, -1.00000000000000 ) );
#195 = DIRECTION( '', ( -1.00000000000000, 0.000000000000000, 0.000000000000000 ) );
#196 = SURFACE_STYLE_FILL_AREA( #263 );
#197 = ORIENTED_EDGE( '', *, *, #264, .F. );
#198 = ORIENTED_EDGE( '', *, *, #265, .F. );
#199 = CARTESIAN_POINT( '', ( 0.000000000000000, 0.000000000000000, 38.4741302385683 ) );
#200 = DIRECTION( '', ( -0.000000000000000, 0.000000000000000, -1.00000000000000 ) );
#201 = DIRECTION( '', ( -1.00000000000000, 0.000000000000000, 0.000000000000000 ) );
#202 = SURFACE_STYLE_FILL_AREA( #266 );
#203 = ORIENTED_EDGE( '', *, *, #264, .T. );
#204 = ORIENTED_EDGE( '', *, *, #267, .T. );
#205 = CARTESIAN_POINT( '', ( 0.000000000000000, 0.000000000000000, -3.72586976143168 ) );
#206 = DIRECTION( '', ( -0.000000000000000, -0.000000000000000, -1.00000000000000 ) );
#207 = DIRECTION( '', ( 1.00000000000000, 0.000000000000000, 0.000000000000000 ) );
#208 = SURFACE_STYLE_FILL_AREA( #268 );
#209 = ORIENTED_EDGE( '', *, *, #269, .F. );
#210 = CARTESIAN_POINT( '', ( 0.000000000000000, 0.000000000000000, 29.9741302385683 ) );
#211 = DIRECTION( '', ( 0.000000000000000, 0.000000000000000, 1.00000000000000 ) );
#212 = DIRECTION( '', ( 1.00000000000000, 0.000000000000000, 0.000000000000000 ) );
#213 = SURFACE_STYLE_FILL_AREA( #270 );
#214 = ORIENTED_EDGE( '', *, *, #271, .F. );
#215 = ORIENTED_EDGE( '', *, *, #272, .T. );
#216 = CARTESIAN_POINT( '', ( 0.000000000000000, 0.000000000000000, -0.906624866427010 ) );
#217 = DIRECTION( '', ( -0.000000000000000, -0.000000000000000, 1.00000000000000 ) );
#218 = DIRECTION( '', ( -1.00000000000000, 0.000000000000000, 0.000000000000000 ) );
#219 = SURFACE_STYLE_FILL_AREA( #273 );
#220 = ORIENTED_EDGE( '', *, *, #272, .F. );
#221 = ORIENTED_EDGE( '', *, *, #274, .T. );
#222 = CARTESIAN_POINT( '', ( 0.000000000000000, 0.000000000000000, 43.4741302385683 ) );
#223 = DIRECTION( '', ( 0.000000000000000, 0.000000000000000, -1.00000000000000 ) );
#224 = DIRECTION( '', ( -1.00000000000000, 0.000000000000000, 0.000000000000000 ) );
#225 = SURFACE_STYLE_FILL_AREA( #275 );
#226 = ORIENTED_EDGE( '', *, *, #274, .F. );
#227 = CARTESIAN_POINT( '', ( 0.000000000000000, 0.000000000000000, 0.000000000000000 ) );
#228 = DIRECTION( '', ( 0.000000000000000, 0.000000000000000, -1.00000000000000 ) );
#229 = DIRECTION( '', ( -1.00000000000000, 0.000000000000000, 0.000000000000000 ) );
#230 = SURFACE_STYLE_FILL_AREA( #276 );
#231 = ORIENTED_EDGE( '', *, *, #269, .T. );
#232 = ORIENTED_EDGE( '', *, *, #277, .F. );
#233 = CARTESIAN_POINT( '', ( 0.000000000000000, 0.000000000000000, 29.9741302385683 ) );
#234 = DIRECTION( '', ( -0.000000000000000, -0.000000000000000, 1.00000000000000 ) );
#235 = DIRECTION( '', ( -1.00000000000000, 0.000000000000000, 0.000000000000000 ) );
#236 = SURFACE_STYLE_FILL_AREA( #278 );
#237 = ORIENTED_EDGE( '', *, *, #265, .T. );
#238 = ORIENTED_EDGE( '', *, *, #271, .T. );
#239 = CARTESIAN_POINT( '', ( 0.000000000000000, 0.000000000000000, 38.4741302385683 ) );
#240 = DIRECTION( '', ( 0.000000000000000, 0.000000000000000, 1.00000000000000 ) );
#241 = DIRECTION( '', ( 1.00000000000000, 0.000000000000000, 0.000000000000000 ) );
#242 = SURFACE_STYLE_FILL_AREA( #279 );
#243 = ORIENTED_EDGE( '', *, *, #267, .F. );
#244 = ORIENTED_EDGE( '', *, *, #277, .T. );
#245 = CARTESIAN_POINT( '', ( 0.000000000000000, 0.000000000000000, -3.72586976143168 ) );
#246 = DIRECTION( '', ( 0.000000000000000, 0.000000000000000, 1.00000000000000 ) );
#247 = DIRECTION( '', ( 1.00000000000000, 0.000000000000000, 0.000000000000000 ) );
#248 = SURFACE_STYLE_FILL_AREA( #280 );
#249 = ORIENTED_EDGE( '', *, *, #281, .F. );
#250 = CARTESIAN_POINT( '', ( 0.000000000000000, 0.000000000000000, 38.4741302385683 ) );
#251 = DIRECTION( '', ( 0.000000000000000, 0.000000000000000, 1.00000000000000 ) );
#252 = DIRECTION( '', ( 1.00000000000000, 0.000000000000000, 0.000000000000000 ) );
#253 = SURFACE_STYLE_FILL_AREA( #282 );
#254 = ORIENTED_EDGE( '', *, *, #262, .F. );
#255 = ORIENTED_EDGE( '', *, *, #281, .T. );
#256 = CARTESIAN_POINT( '', ( 0.000000000000000, 0.000000000000000, -0.906624866427010 ) );
#257 = DIRECTION( '', ( -0.000000000000000, -0.000000000000000, 1.00000000000000 ) );
#258 = DIRECTION( '', ( -1.00000000000000, 0.000000000000000, 0.000000000000000 ) );
#259 = FILL_AREA_STYLE( '', ( #283 ) );
#260 = EDGE_CURVE( '', #284, #284, #285, .T. );
#261 = FILL_AREA_STYLE( '', ( #286 ) );
#262 = EDGE_CURVE( '', #287, #287, #288, .T. );
#263 = FILL_AREA_STYLE( '', ( #289 ) );
#264 = EDGE_CURVE( '', #290, #290, #291, .F. );
#265 = EDGE_CURVE( '', #292, #292, #293, .T. );
#266 = FILL_AREA_STYLE( '', ( #294 ) );
#267 = EDGE_CURVE( '', #295, #295, #296, .T. );
#268 = FILL_AREA_STYLE( '', ( #297 ) );
#269 = EDGE_CURVE( '', #298, #298, #299, .T. );
#270 = FILL_AREA_STYLE( '', ( #300 ) );
#271 = EDGE_CURVE( '', #301, #301, #302, .T. );
#272 = EDGE_CURVE( '', #303, #303, #304, .T. );
#273 = FILL_AREA_STYLE( '', ( #305 ) );
#274 = EDGE_CURVE( '', #306, #306, #307, .T. );
#275 = FILL_AREA_STYLE( '', ( #308 ) );
#276 = FILL_AREA_STYLE( '', ( #309 ) );
#277 = EDGE_CURVE( '', #310, #310, #311, .T. );
#278 = FILL_AREA_STYLE( '', ( #312 ) );
#279 = FILL_AREA_STYLE( '', ( #313 ) );
#280 = FILL_AREA_STYLE( '', ( #314 ) );
#281 = EDGE_CURVE( '', #315, #315, #316, .F. );
#282 = FILL_AREA_STYLE( '', ( #317 ) );
#283 = FILL_AREA_STYLE_COLOUR( '', #318 );
#284 = VERTEX_POINT( '', #319 );
#285 = CIRCLE( '', #320, 23.2731958762887 );
#286 = FILL_AREA_STYLE_COLOUR( '', #321 );
#287 = VERTEX_POINT( '', #322 );
#288 = CIRCLE( '', #323, 25.5000000000000 );
#289 = FILL_AREA_STYLE_COLOUR( '', #324 );
#290 = VERTEX_POINT( '', #325 );
#291 = CIRCLE( '', #326, 29.5000000000000 );
#292 = VERTEX_POINT( '', #327 );
#293 = CIRCLE( '', #328, 28.0000000000000 );
#294 = FILL_AREA_STYLE_COLOUR( '', #329 );
#295 = VERTEX_POINT( '', #330 );
#296 = CIRCLE( '', #331, 29.5000000000000 );
#297 = FILL_AREA_STYLE_COLOUR( '', #332 );
#298 = VERTEX_POINT( '', #333 );
#299 = CIRCLE( '', #334, 27.0000000000000 );
#300 = FILL_AREA_STYLE_COLOUR( '', #335 );
#301 = VERTEX_POINT( '', #336 );
#302 = CIRCLE( '', #337, 27.0000000000000 );
#303 = VERTEX_POINT( '', #338 );
#304 = CIRCLE( '', #339, 27.0000000000000 );
#305 = FILL_AREA_STYLE_COLOUR( '', #340 );
#306 = VERTEX_POINT( '', #341 );
#307 = CIRCLE( '', #342, 23.9381443298969 );
#308 = FILL_AREA_STYLE_COLOUR( '', #343 );
#309 = FILL_AREA_STYLE_COLOUR( '', #344 );
#310 = VERTEX_POINT( '', #345 );
#311 = CIRCLE( '', #346, 27.0000000000000 );
#312 = FILL_AREA_STYLE_COLOUR( '', #347 );
#313 = FILL_AREA_STYLE_COLOUR( '', #348 );
#314 = FILL_AREA_STYLE_COLOUR( '', #349 );
#315 = VERTEX_POINT( '', #350 );
#316 = CIRCLE( '', #351, 25.5000000000000 );
#317 = FILL_AREA_STYLE_COLOUR( '', #352 );
#318 = COLOUR_RGB( '', 0.400000005960464, 0.294117659330368, 0.129411771893501 );
#319 = CARTESIAN_POINT( '', ( -23.2731958762887, 0.000000000000000, 47.0596255159760 ) );
#320 = AXIS2_PLACEMENT_3D( '', #353, #354, #355 );
#321 = COLOUR_RGB( '', 0.400000005960464, 0.294117659330368, 0.129411771893501 );
#322 = CARTESIAN_POINT( '', ( -25.5000000000000, 0.000000000000000, 43.4741302385683 ) );
#323 = AXIS2_PLACEMENT_3D( '', #356, #357, #358 );
#324 = COLOUR_RGB( '', 0.400000005960464, 0.294117659330368, 0.129411771893501 );
#325 = CARTESIAN_POINT( '', ( 29.5000000000000, 0.000000000000000, 36.9741302385683 ) );
#326 = AXIS2_PLACEMENT_3D( '', #359, #360, #361 );
#327 = CARTESIAN_POINT( '', ( 28.0000000000000, 0.000000000000000, 38.4741302385683 ) );
#328 = AXIS2_PLACEMENT_3D( '', #362, #363, #364 );
#329 = COLOUR_RGB( '', 0.400000005960464, 0.294117659330368, 0.129411771893501 );
#330 = CARTESIAN_POINT( '', ( 29.5000000000000, 0.000000000000000, -3.72586976143168 ) );
#331 = AXIS2_PLACEMENT_3D( '', #365, #366, #367 );
#332 = COLOUR_RGB( '', 0.400000005960464, 0.294117659330368, 0.129411771893501 );
#333 = CARTESIAN_POINT( '', ( 27.0000000000000, 0.000000000000000, 29.9741302385683 ) );
#334 = AXIS2_PLACEMENT_3D( '', #368, #369, #370 );
#335 = COLOUR_RGB( '', 0.400000005960464, 0.294117659330368, 0.129411771893501 );
#336 = CARTESIAN_POINT( '', ( -27.0000000000000, 0.000000000000000, 38.4741302385683 ) );
#337 = AXIS2_PLACEMENT_3D( '', #371, #372, #373 );
#338 = CARTESIAN_POINT( '', ( -27.0000000000000, 0.000000000000000, 43.4741302385683 ) );
#339 = AXIS2_PLACEMENT_3D( '', #374, #375, #376 );
#340 = COLOUR_RGB( '', 0.400000005960464, 0.294117659330368, 0.129411771893501 );
#341 = CARTESIAN_POINT( '', ( -23.9381443298969, 0.000000000000000, 48.4041862450039 ) );
#342 = AXIS2_PLACEMENT_3D( '', #377, #378, #379 );
#343 = COLOUR_RGB( '', 0.400000005960464, 0.294117659330368, 0.129411771893501 );
#344 = COLOUR_RGB( '', 0.400000005960464, 0.294117659330368, 0.129411771893501 );
#345 = CARTESIAN_POINT( '', ( 27.0000000000000, 0.000000000000000, -3.72586976143168 ) );
#346 = AXIS2_PLACEMENT_3D( '', #380, #381, #382 );
#347 = COLOUR_RGB( '', 0.400000005960464, 0.294117659330368, 0.129411771893501 );
#348 = COLOUR_RGB( '', 0.400000005960464, 0.294117659330368, 0.129411771893501 );
#349 = COLOUR_RGB( '', 0.400000005960464, 0.294117659330368, 0.129411771893501 );
#350 = CARTESIAN_POINT( '', ( 25.5000000000000, 0.000000000000000, 38.4741302385683 ) );
#351 = AXIS2_PLACEMENT_3D( '', #383, #384, #385 );
#352 = COLOUR_RGB( '', 0.400000005960464, 0.294117659330368, 0.129411771893501 );
#353 = CARTESIAN_POINT( '', ( 0.000000000000000, 0.000000000000000, 47.0596255159760 ) );
#354 = DIRECTION( '', ( 0.000000000000000, 0.000000000000000, -1.00000000000000 ) );
#355 = DIRECTION( '', ( -1.00000000000000, 0.000000000000000, 0.000000000000000 ) );
#356 = CARTESIAN_POINT( '', ( 0.000000000000000, 0.000000000000000, 43.4741302385683 ) );
#357 = DIRECTION( '', ( 0.000000000000000, 0.000000000000000, -1.00000000000000 ) );
#358 = DIRECTION( '', ( -1.00000000000000, 0.000000000000000, 0.000000000000000 ) );
#359 = CARTESIAN_POINT( '', ( 0.000000000000000, 0.000000000000000, 36.9741302385683 ) );
#360 = DIRECTION( '', ( 0.000000000000000, 0.000000000000000, 1.00000000000000 ) );
#361 = DIRECTION( '', ( 1.00000000000000, 0.000000000000000, 0.000000000000000 ) );
#362 = CARTESIAN_POINT( '', ( 0.000000000000000, 0.000000000000000, 38.4741302385683 ) );
#363 = DIRECTION( '', ( 0.000000000000000, 0.000000000000000, 1.00000000000000 ) );
#364 = DIRECTION( '', ( 1.00000000000000, 0.000000000000000, 0.000000000000000 ) );
#365 = CARTESIAN_POINT( '', ( 0.000000000000000, 0.000000000000000, -3.72586976143168 ) );
#366 = DIRECTION( '', ( 0.000000000000000, 0.000000000000000, 1.00000000000000 ) );
#367 = DIRECTION( '', ( 1.00000000000000, 0.000000000000000, 0.000000000000000 ) );
#368 = CARTESIAN_POINT( '', ( 0.000000000000000, 0.000000000000000, 29.9741302385683 ) );
#369 = DIRECTION( '', ( 0.000000000000000, 0.000000000000000, 1.00000000000000 ) );
#370 = DIRECTION( '', ( 1.00000000000000, 0.000000000000000, 0.000000000000000 ) );
#371 = CARTESIAN_POINT( '', ( 0.000000000000000, 0.000000000000000, 38.4741302385683 ) );
#372 = DIRECTION( '', ( 0.000000000000000, 0.000000000000000, -1.00000000000000 ) );
#373 = DIRECTION( '', ( -1.00000000000000, 0.000000000000000, 0.000000000000000 ) );
#374 = CARTESIAN_POINT( '', ( 0.000000000000000, 0.000000000000000, 43.4741302385683 ) );
#375 = DIRECTION( '', ( 0.000000000000000, 0.000000000000000, -1.00000000000000 ) );
#376 = DIRECTION( '', ( -1.00000000000000, 0.000000000000000, 0.000000000000000 ) );
#377 = CARTESIAN_POINT( '', ( 0.000000000000000, 0.000000000000000, 48.4041862450039 ) );
#378 = DIRECTION( '', ( 0.000000000000000, 0.000000000000000, -1.00000000000000 ) );
#379 = DIRECTION( '', ( -1.00000000000000, 0.000000000000000, 0.000000000000000 ) );
#380 = CARTESIAN_POINT( '', ( 0.000000000000000, 0.000000000000000, -3.72586976143168 ) );
#381 = DIRECTION( '', ( 0.000000000000000, 0.000000000000000, 1.00000000000000 ) );
#382 = DIRECTION( '', ( 1.00000000000000, 0.000000000000000, 0.000000000000000 ) );
#383 = CARTESIAN_POINT( '', ( 0.000000000000000, 0.000000000000000, 38.4741302385683 ) );
#384 = DIRECTION( '', ( 0.000000000000000, 0.000000000000000, 1.00000000000000 ) );
#385 = DIRECTION( '', ( 1.00000000000000, 0.000000000000000, 0.000000000000000 ) );
ENDSEC;
END-ISO-10303-21;
