ISO-10303-21;
HEADER;
FILE_DESCRIPTION( ( 'Unknown' ), '1' );
FILE_NAME( '//Server/ofimatica/alfredo/Alfredo2/ISOTUBI/PZAS3D/FICHATECNICA/NUMEPRESS/generico 3D/F21DN88,9.stp', 'Unknown', ( 'Unknown' ), ( 'Unknown' ), 'PSStep 14.0', 'Unknown', '  ' );
FILE_SCHEMA( ( 'AUTOMOTIVE_DESIGN { 1 0 10303 214 1 1 1 1 }' ) );
ENDSEC;
DATA;
#1 = MECHANICAL_DESIGN_GEOMETRIC_PRESENTATION_REPRESENTATION( ' ', ( #10, #11, #12, #13, #14, #15, #16, #17, #18, #19, #20, #21, #22, #23, #24 ), #6 );
#2 = PRODUCT_DEFINITION_CONTEXT( '', #25, 'design' );
#3 = APPLICATION_PROTOCOL_DEFINITION( 'international standard', 'automotive_design', 2001, #25 );
#4 = PRODUCT_CATEGORY_RELATIONSHIP( 'NONE', 'NONE', #26, #27 );
#5 = SHAPE_DEFINITION_REPRESENTATION( #28, #29 );
#6 =  ( GEOMETRIC_REPRESENTATION_CONTEXT( 3 )GLOBAL_UNCERTAINTY_ASSIGNED_CONTEXT( ( #32 ) )GLOBAL_UNIT_ASSIGNED_CONTEXT( ( #34, #35, #36 ) )REPRESENTATION_CONTEXT( 'NONE', 'WORKSPACE' ) );
#10 = STYLED_ITEM( '', ( #38 ), #39 );
#11 = STYLED_ITEM( '', ( #40 ), #41 );
#12 = STYLED_ITEM( '', ( #42 ), #43 );
#13 = STYLED_ITEM( '', ( #44 ), #45 );
#14 = STYLED_ITEM( '', ( #46 ), #47 );
#15 = STYLED_ITEM( '', ( #48 ), #49 );
#16 = STYLED_ITEM( '', ( #50 ), #51 );
#17 = STYLED_ITEM( '', ( #52 ), #53 );
#18 = STYLED_ITEM( '', ( #54 ), #55 );
#19 = STYLED_ITEM( '', ( #56 ), #57 );
#20 = STYLED_ITEM( '', ( #58 ), #59 );
#21 = STYLED_ITEM( '', ( #60 ), #61 );
#22 = STYLED_ITEM( '', ( #62 ), #63 );
#23 = STYLED_ITEM( '', ( #64 ), #65 );
#24 = STYLED_ITEM( '', ( #66 ), #67 );
#25 = APPLICATION_CONTEXT( 'core data for automotive mechanical design processes' );
#26 = PRODUCT_CATEGORY( 'part', 'NONE' );
#27 = PRODUCT_RELATED_PRODUCT_CATEGORY( 'detail', ' ', ( #68 ) );
#28 = PRODUCT_DEFINITION_SHAPE( 'NONE', 'NONE', #69 );
#29 = ADVANCED_BREP_SHAPE_REPRESENTATION( '1', ( #70, #71 ), #6 );
#32 = UNCERTAINTY_MEASURE_WITH_UNIT( LENGTH_MEASURE( 0.00100000000000000 ), #34, '', '' );
#34 =  ( CONVERSION_BASED_UNIT( 'MILLIMETRE', #74 )LENGTH_UNIT(  )NAMED_UNIT( #77 ) );
#35 =  ( NAMED_UNIT( #79 )PLANE_ANGLE_UNIT(  )SI_UNIT( $, .RADIAN. ) );
#36 =  ( NAMED_UNIT( #79 )SI_UNIT( $, .STERADIAN. )SOLID_ANGLE_UNIT(  ) );
#38 = PRESENTATION_STYLE_ASSIGNMENT( ( #85 ) );
#39 = ADVANCED_FACE( '', ( #86 ), #87, .F. );
#40 = PRESENTATION_STYLE_ASSIGNMENT( ( #88 ) );
#41 = ADVANCED_FACE( '', ( #89, #90 ), #91, .F. );
#42 = PRESENTATION_STYLE_ASSIGNMENT( ( #92 ) );
#43 = ADVANCED_FACE( '', ( #93, #94 ), #95, .T. );
#44 = PRESENTATION_STYLE_ASSIGNMENT( ( #96 ) );
#45 = ADVANCED_FACE( '', ( #97, #98 ), #99, .T. );
#46 = PRESENTATION_STYLE_ASSIGNMENT( ( #100 ) );
#47 = ADVANCED_FACE( '', ( #101, #102 ), #103, .T. );
#48 = PRESENTATION_STYLE_ASSIGNMENT( ( #104 ) );
#49 = ADVANCED_FACE( '', ( #105 ), #106, .T. );
#50 = PRESENTATION_STYLE_ASSIGNMENT( ( #107 ) );
#51 = ADVANCED_FACE( '', ( #108 ), #109, .T. );
#52 = PRESENTATION_STYLE_ASSIGNMENT( ( #110 ) );
#53 = ADVANCED_FACE( '', ( #111, #112 ), #113, .T. );
#54 = PRESENTATION_STYLE_ASSIGNMENT( ( #114 ) );
#55 = ADVANCED_FACE( '', ( #115, #116 ), #117, .F. );
#56 = PRESENTATION_STYLE_ASSIGNMENT( ( #118 ) );
#57 = ADVANCED_FACE( '', ( #119, #120 ), #121, .T. );
#58 = PRESENTATION_STYLE_ASSIGNMENT( ( #122 ) );
#59 = ADVANCED_FACE( '', ( #123, #124 ), #125, .F. );
#60 = PRESENTATION_STYLE_ASSIGNMENT( ( #126 ) );
#61 = ADVANCED_FACE( '', ( #127, #128 ), #129, .F. );
#62 = PRESENTATION_STYLE_ASSIGNMENT( ( #130 ) );
#63 = ADVANCED_FACE( '', ( #131, #132 ), #133, .T. );
#64 = PRESENTATION_STYLE_ASSIGNMENT( ( #134 ) );
#65 = ADVANCED_FACE( '', ( #135, #136 ), #137, .T. );
#66 = PRESENTATION_STYLE_ASSIGNMENT( ( #138 ) );
#67 = ADVANCED_FACE( '', ( #139 ), #140, .F. );
#68 = PRODUCT( '1', '1', 'PART-1-DESC', ( #141 ) );
#69 = PRODUCT_DEFINITION( 'NONE', 'NONE', #142, #2 );
#70 = BREP_WITH_VOIDS( '1', #143, ( #144 ) );
#71 = AXIS2_PLACEMENT_3D( '', #145, #146, #147 );
#74 = LENGTH_MEASURE_WITH_UNIT( LENGTH_MEASURE( 1.00000000000000 ), #148 );
#77 = DIMENSIONAL_EXPONENTS( 1.00000000000000, 0.000000000000000, 0.000000000000000, 0.000000000000000, 0.000000000000000, 0.000000000000000, 0.000000000000000 );
#79 = DIMENSIONAL_EXPONENTS( 0.000000000000000, 0.000000000000000, 0.000000000000000, 0.000000000000000, 0.000000000000000, 0.000000000000000, 0.000000000000000 );
#85 = SURFACE_STYLE_USAGE( .BOTH., #149 );
#86 = FACE_OUTER_BOUND( '', #150, .T. );
#87 = PLANE( '', #151 );
#88 = SURFACE_STYLE_USAGE( .BOTH., #152 );
#89 = FACE_OUTER_BOUND( '', #153, .T. );
#90 = FACE_OUTER_BOUND( '', #154, .T. );
#91 = TOROIDAL_SURFACE( '', #155, 35.5500000000000, 6.90000000000000 );
#92 = SURFACE_STYLE_USAGE( .BOTH., #156 );
#93 = FACE_OUTER_BOUND( '', #157, .T. );
#94 = FACE_BOUND( '', #158, .T. );
#95 = CONICAL_SURFACE( '', #159, 45.5000000000000, 0.785398163397448 );
#96 = SURFACE_STYLE_USAGE( .BOTH., #160 );
#97 = FACE_OUTER_BOUND( '', #161, .T. );
#98 = FACE_OUTER_BOUND( '', #162, .T. );
#99 = CYLINDRICAL_SURFACE( '', #163, 44.4500000000000 );
#100 = SURFACE_STYLE_USAGE( .BOTH., #164 );
#101 = FACE_OUTER_BOUND( '', #165, .T. );
#102 = FACE_BOUND( '', #166, .T. );
#103 = PLANE( '', #167 );
#104 = SURFACE_STYLE_USAGE( .BOTH., #168 );
#105 = FACE_OUTER_BOUND( '', #169, .T. );
#106 = PLANE( '', #170 );
#107 = SURFACE_STYLE_USAGE( .BOTH., #171 );
#108 = FACE_OUTER_BOUND( '', #172, .T. );
#109 = SPHERICAL_SURFACE( '', #173, 88.9000000000000 );
#110 = SURFACE_STYLE_USAGE( .BOTH., #174 );
#111 = FACE_OUTER_BOUND( '', #175, .T. );
#112 = FACE_BOUND( '', #176, .T. );
#113 = PLANE( '', #177 );
#114 = SURFACE_STYLE_USAGE( .BOTH., #178 );
#115 = FACE_OUTER_BOUND( '', #179, .T. );
#116 = FACE_OUTER_BOUND( '', #180, .T. );
#117 = CYLINDRICAL_SURFACE( '', #181, 42.4500000000000 );
#118 = SURFACE_STYLE_USAGE( .BOTH., #182 );
#119 = FACE_OUTER_BOUND( '', #183, .T. );
#120 = FACE_OUTER_BOUND( '', #184, .T. );
#121 = CYLINDRICAL_SURFACE( '', #185, 47.0000000000000 );
#122 = SURFACE_STYLE_USAGE( .BOTH., #186 );
#123 = FACE_OUTER_BOUND( '', #187, .T. );
#124 = FACE_BOUND( '', #188, .T. );
#125 = PLANE( '', #189 );
#126 = SURFACE_STYLE_USAGE( .BOTH., #190 );
#127 = FACE_OUTER_BOUND( '', #191, .T. );
#128 = FACE_OUTER_BOUND( '', #192, .T. );
#129 = CYLINDRICAL_SURFACE( '', #193, 44.5000000000000 );
#130 = SURFACE_STYLE_USAGE( .BOTH., #194 );
#131 = FACE_OUTER_BOUND( '', #195, .T. );
#132 = FACE_OUTER_BOUND( '', #196, .T. );
#133 = CYLINDRICAL_SURFACE( '', #197, 45.0000000000000 );
#134 = SURFACE_STYLE_USAGE( .BOTH., #198 );
#135 = FACE_OUTER_BOUND( '', #199, .T. );
#136 = FACE_OUTER_BOUND( '', #200, .T. );
#137 = TOROIDAL_SURFACE( '', #201, 35.5500000000000, 8.90000000000000 );
#138 = SURFACE_STYLE_USAGE( .BOTH., #202 );
#139 = FACE_OUTER_BOUND( '', #203, .T. );
#140 = SPHERICAL_SURFACE( '', #204, 86.9000000000000 );
#141 = PRODUCT_CONTEXT( '', #25, 'mechanical' );
#142 = PRODUCT_DEFINITION_FORMATION_WITH_SPECIFIED_SOURCE( ' ', 'NONE', #68, .NOT_KNOWN. );
#143 = CLOSED_SHELL( '', ( #59, #43, #61, #39, #51, #65, #57, #47, #63, #45, #53 ) );
#144 = ORIENTED_CLOSED_SHELL( '', *, #205, .T. );
#145 = CARTESIAN_POINT( '', ( 0.000000000000000, 0.000000000000000, 0.000000000000000 ) );
#146 = DIRECTION( '', ( 0.000000000000000, 0.000000000000000, 1.00000000000000 ) );
#147 = DIRECTION( '', ( 1.00000000000000, 0.000000000000000, 0.000000000000000 ) );
#148 =  ( LENGTH_UNIT(  )NAMED_UNIT( #77 )SI_UNIT( .MILLI., .METRE. ) );
#149 = SURFACE_SIDE_STYLE( '', ( #207 ) );
#150 = EDGE_LOOP( '', ( #208 ) );
#151 = AXIS2_PLACEMENT_3D( '', #209, #210, #211 );
#152 = SURFACE_SIDE_STYLE( '', ( #212 ) );
#153 = EDGE_LOOP( '', ( #213 ) );
#154 = EDGE_LOOP( '', ( #214 ) );
#155 = AXIS2_PLACEMENT_3D( '', #215, #216, #217 );
#156 = SURFACE_SIDE_STYLE( '', ( #218 ) );
#157 = EDGE_LOOP( '', ( #219 ) );
#158 = EDGE_LOOP( '', ( #220 ) );
#159 = AXIS2_PLACEMENT_3D( '', #221, #222, #223 );
#160 = SURFACE_SIDE_STYLE( '', ( #224 ) );
#161 = EDGE_LOOP( '', ( #225 ) );
#162 = EDGE_LOOP( '', ( #226 ) );
#163 = AXIS2_PLACEMENT_3D( '', #227, #228, #229 );
#164 = SURFACE_SIDE_STYLE( '', ( #230 ) );
#165 = EDGE_LOOP( '', ( #231 ) );
#166 = EDGE_LOOP( '', ( #232 ) );
#167 = AXIS2_PLACEMENT_3D( '', #233, #234, #235 );
#168 = SURFACE_SIDE_STYLE( '', ( #236 ) );
#169 = EDGE_LOOP( '', ( #237 ) );
#170 = AXIS2_PLACEMENT_3D( '', #238, #239, #240 );
#171 = SURFACE_SIDE_STYLE( '', ( #241 ) );
#172 = EDGE_LOOP( '', ( #242 ) );
#173 = AXIS2_PLACEMENT_3D( '', #243, #244, #245 );
#174 = SURFACE_SIDE_STYLE( '', ( #246 ) );
#175 = EDGE_LOOP( '', ( #247 ) );
#176 = EDGE_LOOP( '', ( #248 ) );
#177 = AXIS2_PLACEMENT_3D( '', #249, #250, #251 );
#178 = SURFACE_SIDE_STYLE( '', ( #252 ) );
#179 = EDGE_LOOP( '', ( #253 ) );
#180 = EDGE_LOOP( '', ( #254 ) );
#181 = AXIS2_PLACEMENT_3D( '', #255, #256, #257 );
#182 = SURFACE_SIDE_STYLE( '', ( #258 ) );
#183 = EDGE_LOOP( '', ( #259 ) );
#184 = EDGE_LOOP( '', ( #260 ) );
#185 = AXIS2_PLACEMENT_3D( '', #261, #262, #263 );
#186 = SURFACE_SIDE_STYLE( '', ( #264 ) );
#187 = EDGE_LOOP( '', ( #265 ) );
#188 = EDGE_LOOP( '', ( #266 ) );
#189 = AXIS2_PLACEMENT_3D( '', #267, #268, #269 );
#190 = SURFACE_SIDE_STYLE( '', ( #270 ) );
#191 = EDGE_LOOP( '', ( #271 ) );
#192 = EDGE_LOOP( '', ( #272 ) );
#193 = AXIS2_PLACEMENT_3D( '', #273, #274, #275 );
#194 = SURFACE_SIDE_STYLE( '', ( #276 ) );
#195 = EDGE_LOOP( '', ( #277 ) );
#196 = EDGE_LOOP( '', ( #278 ) );
#197 = AXIS2_PLACEMENT_3D( '', #279, #280, #281 );
#198 = SURFACE_SIDE_STYLE( '', ( #282 ) );
#199 = EDGE_LOOP( '', ( #283 ) );
#200 = EDGE_LOOP( '', ( #284 ) );
#201 = AXIS2_PLACEMENT_3D( '', #285, #286, #287 );
#202 = SURFACE_SIDE_STYLE( '', ( #288 ) );
#203 = EDGE_LOOP( '', ( #289 ) );
#204 = AXIS2_PLACEMENT_3D( '', #290, #291, #292 );
#205 = CLOSED_SHELL( '', ( #49, #55, #41, #67 ) );
#207 = SURFACE_STYLE_FILL_AREA( #293 );
#208 = ORIENTED_EDGE( '', *, *, #294, .F. );
#209 = CARTESIAN_POINT( '', ( 0.000000000000000, 0.000000000000000, 38.1672693773106 ) );
#210 = DIRECTION( '', ( 0.000000000000000, 0.000000000000000, 1.00000000000000 ) );
#211 = DIRECTION( '', ( 1.00000000000000, 0.000000000000000, 0.000000000000000 ) );
#212 = SURFACE_STYLE_FILL_AREA( #295 );
#213 = ORIENTED_EDGE( '', *, *, #296, .F. );
#214 = ORIENTED_EDGE( '', *, *, #297, .T. );
#215 = CARTESIAN_POINT( '', ( 0.000000000000000, 0.000000000000000, 71.6672693773106 ) );
#216 = DIRECTION( '', ( 0.000000000000000, 0.000000000000000, -1.00000000000000 ) );
#217 = DIRECTION( '', ( -1.00000000000000, 0.000000000000000, 0.000000000000000 ) );
#218 = SURFACE_STYLE_FILL_AREA( #298 );
#219 = ORIENTED_EDGE( '', *, *, #299, .F. );
#220 = ORIENTED_EDGE( '', *, *, #300, .F. );
#221 = CARTESIAN_POINT( '', ( 0.000000000000000, 0.000000000000000, 40.1672693773106 ) );
#222 = DIRECTION( '', ( -0.000000000000000, 0.000000000000000, -1.00000000000000 ) );
#223 = DIRECTION( '', ( -1.00000000000000, 0.000000000000000, 0.000000000000000 ) );
#224 = SURFACE_STYLE_FILL_AREA( #301 );
#225 = ORIENTED_EDGE( '', *, *, #302, .F. );
#226 = ORIENTED_EDGE( '', *, *, #303, .T. );
#227 = CARTESIAN_POINT( '', ( 0.000000000000000, 0.000000000000000, -1.38403783118267 ) );
#228 = DIRECTION( '', ( -0.000000000000000, -0.000000000000000, 1.00000000000000 ) );
#229 = DIRECTION( '', ( -1.00000000000000, 0.000000000000000, 0.000000000000000 ) );
#230 = SURFACE_STYLE_FILL_AREA( #304 );
#231 = ORIENTED_EDGE( '', *, *, #305, .T. );
#232 = ORIENTED_EDGE( '', *, *, #302, .T. );
#233 = CARTESIAN_POINT( '', ( 0.000000000000000, 0.000000000000000, 62.6672693773106 ) );
#234 = DIRECTION( '', ( 0.000000000000000, 0.000000000000000, 1.00000000000000 ) );
#235 = DIRECTION( '', ( 1.00000000000000, 0.000000000000000, 0.000000000000000 ) );
#236 = SURFACE_STYLE_FILL_AREA( #306 );
#237 = ORIENTED_EDGE( '', *, *, #307, .F. );
#238 = CARTESIAN_POINT( '', ( 0.000000000000000, 0.000000000000000, 62.6672693773106 ) );
#239 = DIRECTION( '', ( 0.000000000000000, 0.000000000000000, 1.00000000000000 ) );
#240 = DIRECTION( '', ( 1.00000000000000, 0.000000000000000, 0.000000000000000 ) );
#241 = SURFACE_STYLE_FILL_AREA( #308 );
#242 = ORIENTED_EDGE( '', *, *, #309, .F. );
#243 = CARTESIAN_POINT( '', ( 0.000000000000000, 0.000000000000000, 0.000000000000000 ) );
#244 = DIRECTION( '', ( 0.000000000000000, 0.000000000000000, -1.00000000000000 ) );
#245 = DIRECTION( '', ( -1.00000000000000, 0.000000000000000, 0.000000000000000 ) );
#246 = SURFACE_STYLE_FILL_AREA( #310 );
#247 = ORIENTED_EDGE( '', *, *, #300, .T. );
#248 = ORIENTED_EDGE( '', *, *, #311, .T. );
#249 = CARTESIAN_POINT( '', ( 0.000000000000000, 0.000000000000000, 40.1672693773106 ) );
#250 = DIRECTION( '', ( 0.000000000000000, 0.000000000000000, 1.00000000000000 ) );
#251 = DIRECTION( '', ( 1.00000000000000, 0.000000000000000, 0.000000000000000 ) );
#252 = SURFACE_STYLE_FILL_AREA( #312 );
#253 = ORIENTED_EDGE( '', *, *, #297, .F. );
#254 = ORIENTED_EDGE( '', *, *, #307, .T. );
#255 = CARTESIAN_POINT( '', ( 0.000000000000000, 0.000000000000000, -1.38403783118267 ) );
#256 = DIRECTION( '', ( -0.000000000000000, -0.000000000000000, 1.00000000000000 ) );
#257 = DIRECTION( '', ( -1.00000000000000, 0.000000000000000, 0.000000000000000 ) );
#258 = SURFACE_STYLE_FILL_AREA( #313 );
#259 = ORIENTED_EDGE( '', *, *, #299, .T. );
#260 = ORIENTED_EDGE( '', *, *, #314, .T. );
#261 = CARTESIAN_POINT( '', ( 0.000000000000000, 0.000000000000000, 40.1672693773106 ) );
#262 = DIRECTION( '', ( -0.000000000000000, -0.000000000000000, 1.00000000000000 ) );
#263 = DIRECTION( '', ( -1.00000000000000, 0.000000000000000, 0.000000000000000 ) );
#264 = SURFACE_STYLE_FILL_AREA( #315 );
#265 = ORIENTED_EDGE( '', *, *, #314, .F. );
#266 = ORIENTED_EDGE( '', *, *, #316, .T. );
#267 = CARTESIAN_POINT( '', ( 0.000000000000000, 0.000000000000000, -18.3327306226894 ) );
#268 = DIRECTION( '', ( 0.000000000000000, 0.000000000000000, 1.00000000000000 ) );
#269 = DIRECTION( '', ( 1.00000000000000, 0.000000000000000, 0.000000000000000 ) );
#270 = SURFACE_STYLE_FILL_AREA( #317 );
#271 = ORIENTED_EDGE( '', *, *, #294, .T. );
#272 = ORIENTED_EDGE( '', *, *, #316, .F. );
#273 = CARTESIAN_POINT( '', ( 0.000000000000000, 0.000000000000000, 38.1672693773106 ) );
#274 = DIRECTION( '', ( -0.000000000000000, -0.000000000000000, 1.00000000000000 ) );
#275 = DIRECTION( '', ( -1.00000000000000, 0.000000000000000, 0.000000000000000 ) );
#276 = SURFACE_STYLE_FILL_AREA( #318 );
#277 = ORIENTED_EDGE( '', *, *, #311, .F. );
#278 = ORIENTED_EDGE( '', *, *, #305, .F. );
#279 = CARTESIAN_POINT( '', ( 0.000000000000000, 0.000000000000000, -18.3327306226894 ) );
#280 = DIRECTION( '', ( -0.000000000000000, -0.000000000000000, -1.00000000000000 ) );
#281 = DIRECTION( '', ( 1.00000000000000, 0.000000000000000, 0.000000000000000 ) );
#282 = SURFACE_STYLE_FILL_AREA( #319 );
#283 = ORIENTED_EDGE( '', *, *, #303, .F. );
#284 = ORIENTED_EDGE( '', *, *, #309, .T. );
#285 = CARTESIAN_POINT( '', ( 0.000000000000000, 0.000000000000000, 71.6672693773106 ) );
#286 = DIRECTION( '', ( 0.000000000000000, 0.000000000000000, -1.00000000000000 ) );
#287 = DIRECTION( '', ( -1.00000000000000, 0.000000000000000, 0.000000000000000 ) );
#288 = SURFACE_STYLE_FILL_AREA( #320 );
#289 = ORIENTED_EDGE( '', *, *, #296, .T. );
#290 = CARTESIAN_POINT( '', ( 0.000000000000000, 0.000000000000000, 0.000000000000000 ) );
#291 = DIRECTION( '', ( 0.000000000000000, 0.000000000000000, -1.00000000000000 ) );
#292 = DIRECTION( '', ( -1.00000000000000, 0.000000000000000, 0.000000000000000 ) );
#293 = FILL_AREA_STYLE( '', ( #321 ) );
#294 = EDGE_CURVE( '', #322, #322, #323, .T. );
#295 = FILL_AREA_STYLE( '', ( #324 ) );
#296 = EDGE_CURVE( '', #325, #325, #326, .T. );
#297 = EDGE_CURVE( '', #327, #327, #328, .T. );
#298 = FILL_AREA_STYLE( '', ( #329 ) );
#299 = EDGE_CURVE( '', #330, #330, #331, .F. );
#300 = EDGE_CURVE( '', #332, #332, #333, .T. );
#301 = FILL_AREA_STYLE( '', ( #334 ) );
#302 = EDGE_CURVE( '', #335, #335, #336, .T. );
#303 = EDGE_CURVE( '', #337, #337, #338, .T. );
#304 = FILL_AREA_STYLE( '', ( #339 ) );
#305 = EDGE_CURVE( '', #340, #340, #341, .T. );
#306 = FILL_AREA_STYLE( '', ( #342 ) );
#307 = EDGE_CURVE( '', #343, #343, #344, .F. );
#308 = FILL_AREA_STYLE( '', ( #345 ) );
#309 = EDGE_CURVE( '', #346, #346, #347, .T. );
#310 = FILL_AREA_STYLE( '', ( #348 ) );
#311 = EDGE_CURVE( '', #349, #349, #350, .F. );
#312 = FILL_AREA_STYLE( '', ( #351 ) );
#313 = FILL_AREA_STYLE( '', ( #352 ) );
#314 = EDGE_CURVE( '', #353, #353, #354, .T. );
#315 = FILL_AREA_STYLE( '', ( #355 ) );
#316 = EDGE_CURVE( '', #356, #356, #357, .T. );
#317 = FILL_AREA_STYLE( '', ( #358 ) );
#318 = FILL_AREA_STYLE( '', ( #359 ) );
#319 = FILL_AREA_STYLE( '', ( #360 ) );
#320 = FILL_AREA_STYLE( '', ( #361 ) );
#321 = FILL_AREA_STYLE_COLOUR( '', #362 );
#322 = VERTEX_POINT( '', #363 );
#323 = CIRCLE( '', #364, 44.5000000000000 );
#324 = FILL_AREA_STYLE_COLOUR( '', #365 );
#325 = VERTEX_POINT( '', #366 );
#326 = CIRCLE( '', #367, 38.6161875000001 );
#327 = VERTEX_POINT( '', #368 );
#328 = CIRCLE( '', #369, 42.4500000000000 );
#329 = FILL_AREA_STYLE_COLOUR( '', #370 );
#330 = VERTEX_POINT( '', #371 );
#331 = CIRCLE( '', #372, 47.0000000000000 );
#332 = VERTEX_POINT( '', #373 );
#333 = CIRCLE( '', #374, 45.5000000000000 );
#334 = FILL_AREA_STYLE_COLOUR( '', #375 );
#335 = VERTEX_POINT( '', #376 );
#336 = CIRCLE( '', #377, 44.4500000000000 );
#337 = VERTEX_POINT( '', #378 );
#338 = CIRCLE( '', #379, 44.4500000000000 );
#339 = FILL_AREA_STYLE_COLOUR( '', #380 );
#340 = VERTEX_POINT( '', #381 );
#341 = CIRCLE( '', #382, 45.0000000000000 );
#342 = FILL_AREA_STYLE_COLOUR( '', #383 );
#343 = VERTEX_POINT( '', #384 );
#344 = CIRCLE( '', #385, 42.4500000000000 );
#345 = FILL_AREA_STYLE_COLOUR( '', #386 );
#346 = VERTEX_POINT( '', #387 );
#347 = CIRCLE( '', #388, 39.5049375000000 );
#348 = FILL_AREA_STYLE_COLOUR( '', #389 );
#349 = VERTEX_POINT( '', #390 );
#350 = CIRCLE( '', #391, 45.0000000000000 );
#351 = FILL_AREA_STYLE_COLOUR( '', #392 );
#352 = FILL_AREA_STYLE_COLOUR( '', #393 );
#353 = VERTEX_POINT( '', #394 );
#354 = CIRCLE( '', #395, 47.0000000000000 );
#355 = FILL_AREA_STYLE_COLOUR( '', #396 );
#356 = VERTEX_POINT( '', #397 );
#357 = CIRCLE( '', #398, 44.5000000000000 );
#358 = FILL_AREA_STYLE_COLOUR( '', #399 );
#359 = FILL_AREA_STYLE_COLOUR( '', #400 );
#360 = FILL_AREA_STYLE_COLOUR( '', #401 );
#361 = FILL_AREA_STYLE_COLOUR( '', #402 );
#362 = COLOUR_RGB( '', 0.698039233684540, 0.682352960109711, 0.521568655967712 );
#363 = CARTESIAN_POINT( '', ( 44.5000000000000, 0.000000000000000, 38.1672693773106 ) );
#364 = AXIS2_PLACEMENT_3D( '', #403, #404, #405 );
#365 = COLOUR_RGB( '', 0.698039233684540, 0.682352960109711, 0.521568655967712 );
#366 = CARTESIAN_POINT( '', ( -38.6161875000001, 0.000000000000000, 77.8485713611036 ) );
#367 = AXIS2_PLACEMENT_3D( '', #406, #407, #408 );
#368 = CARTESIAN_POINT( '', ( -42.4500000000000, 0.000000000000000, 71.6672693773106 ) );
#369 = AXIS2_PLACEMENT_3D( '', #409, #410, #411 );
#370 = COLOUR_RGB( '', 0.698039233684540, 0.682352960109711, 0.521568655967712 );
#371 = CARTESIAN_POINT( '', ( 47.0000000000000, 0.000000000000000, 38.6672693773106 ) );
#372 = AXIS2_PLACEMENT_3D( '', #412, #413, #414 );
#373 = CARTESIAN_POINT( '', ( 45.5000000000000, 0.000000000000000, 40.1672693773106 ) );
#374 = AXIS2_PLACEMENT_3D( '', #415, #416, #417 );
#375 = COLOUR_RGB( '', 0.698039233684540, 0.682352960109711, 0.521568655967712 );
#376 = CARTESIAN_POINT( '', ( -44.4500000000000, 0.000000000000000, 62.6672693773106 ) );
#377 = AXIS2_PLACEMENT_3D( '', #418, #419, #420 );
#378 = CARTESIAN_POINT( '', ( -44.4500000000000, 0.000000000000000, 71.6672693773106 ) );
#379 = AXIS2_PLACEMENT_3D( '', #421, #422, #423 );
#380 = COLOUR_RGB( '', 0.698039233684540, 0.682352960109711, 0.521568655967712 );
#381 = CARTESIAN_POINT( '', ( 45.0000000000000, 0.000000000000000, 62.6672693773106 ) );
#382 = AXIS2_PLACEMENT_3D( '', #424, #425, #426 );
#383 = COLOUR_RGB( '', 0.698039233684540, 0.682352960109711, 0.521568655967712 );
#384 = CARTESIAN_POINT( '', ( 42.4500000000000, 0.000000000000000, 62.6672693773106 ) );
#385 = AXIS2_PLACEMENT_3D( '', #427, #428, #429 );
#386 = COLOUR_RGB( '', 0.698039233684540, 0.682352960109711, 0.521568655967712 );
#387 = CARTESIAN_POINT( '', ( -39.5049375000000, 0.000000000000000, 79.6402530955364 ) );
#388 = AXIS2_PLACEMENT_3D( '', #430, #431, #432 );
#389 = COLOUR_RGB( '', 0.698039233684540, 0.682352960109711, 0.521568655967712 );
#390 = CARTESIAN_POINT( '', ( 45.0000000000000, 0.000000000000000, 40.1672693773106 ) );
#391 = AXIS2_PLACEMENT_3D( '', #433, #434, #435 );
#392 = COLOUR_RGB( '', 0.698039233684540, 0.682352960109711, 0.521568655967712 );
#393 = COLOUR_RGB( '', 0.698039233684540, 0.682352960109711, 0.521568655967712 );
#394 = CARTESIAN_POINT( '', ( 47.0000000000000, 0.000000000000000, -18.3327306226894 ) );
#395 = AXIS2_PLACEMENT_3D( '', #436, #437, #438 );
#396 = COLOUR_RGB( '', 0.698039233684540, 0.682352960109711, 0.521568655967712 );
#397 = CARTESIAN_POINT( '', ( 44.5000000000000, 0.000000000000000, -18.3327306226894 ) );
#398 = AXIS2_PLACEMENT_3D( '', #439, #440, #441 );
#399 = COLOUR_RGB( '', 0.698039233684540, 0.682352960109711, 0.521568655967712 );
#400 = COLOUR_RGB( '', 0.698039233684540, 0.682352960109711, 0.521568655967712 );
#401 = COLOUR_RGB( '', 0.698039233684540, 0.682352960109711, 0.521568655967712 );
#402 = COLOUR_RGB( '', 0.698039233684540, 0.682352960109711, 0.521568655967712 );
#403 = CARTESIAN_POINT( '', ( 0.000000000000000, 0.000000000000000, 38.1672693773106 ) );
#404 = DIRECTION( '', ( 0.000000000000000, 0.000000000000000, 1.00000000000000 ) );
#405 = DIRECTION( '', ( 1.00000000000000, 0.000000000000000, 0.000000000000000 ) );
#406 = CARTESIAN_POINT( '', ( 0.000000000000000, 0.000000000000000, 77.8485713611036 ) );
#407 = DIRECTION( '', ( 0.000000000000000, 0.000000000000000, -1.00000000000000 ) );
#408 = DIRECTION( '', ( -1.00000000000000, 0.000000000000000, 0.000000000000000 ) );
#409 = CARTESIAN_POINT( '', ( 0.000000000000000, 0.000000000000000, 71.6672693773106 ) );
#410 = DIRECTION( '', ( 0.000000000000000, 0.000000000000000, -1.00000000000000 ) );
#411 = DIRECTION( '', ( -1.00000000000000, 0.000000000000000, 0.000000000000000 ) );
#412 = CARTESIAN_POINT( '', ( 0.000000000000000, 0.000000000000000, 38.6672693773106 ) );
#413 = DIRECTION( '', ( 0.000000000000000, 0.000000000000000, 1.00000000000000 ) );
#414 = DIRECTION( '', ( 1.00000000000000, 0.000000000000000, 0.000000000000000 ) );
#415 = CARTESIAN_POINT( '', ( 0.000000000000000, 0.000000000000000, 40.1672693773106 ) );
#416 = DIRECTION( '', ( 0.000000000000000, 0.000000000000000, 1.00000000000000 ) );
#417 = DIRECTION( '', ( 1.00000000000000, 0.000000000000000, 0.000000000000000 ) );
#418 = CARTESIAN_POINT( '', ( 0.000000000000000, 0.000000000000000, 62.6672693773106 ) );
#419 = DIRECTION( '', ( 0.000000000000000, 0.000000000000000, -1.00000000000000 ) );
#420 = DIRECTION( '', ( -1.00000000000000, 0.000000000000000, 0.000000000000000 ) );
#421 = CARTESIAN_POINT( '', ( 0.000000000000000, 0.000000000000000, 71.6672693773106 ) );
#422 = DIRECTION( '', ( 0.000000000000000, 0.000000000000000, -1.00000000000000 ) );
#423 = DIRECTION( '', ( -1.00000000000000, 0.000000000000000, 0.000000000000000 ) );
#424 = CARTESIAN_POINT( '', ( 0.000000000000000, 0.000000000000000, 62.6672693773106 ) );
#425 = DIRECTION( '', ( 0.000000000000000, 0.000000000000000, 1.00000000000000 ) );
#426 = DIRECTION( '', ( 1.00000000000000, 0.000000000000000, 0.000000000000000 ) );
#427 = CARTESIAN_POINT( '', ( 0.000000000000000, 0.000000000000000, 62.6672693773106 ) );
#428 = DIRECTION( '', ( 0.000000000000000, 0.000000000000000, 1.00000000000000 ) );
#429 = DIRECTION( '', ( 1.00000000000000, 0.000000000000000, 0.000000000000000 ) );
#430 = CARTESIAN_POINT( '', ( 0.000000000000000, 0.000000000000000, 79.6402530955364 ) );
#431 = DIRECTION( '', ( 0.000000000000000, 0.000000000000000, -1.00000000000000 ) );
#432 = DIRECTION( '', ( -1.00000000000000, 0.000000000000000, 0.000000000000000 ) );
#433 = CARTESIAN_POINT( '', ( 0.000000000000000, 0.000000000000000, 40.1672693773106 ) );
#434 = DIRECTION( '', ( 0.000000000000000, 0.000000000000000, 1.00000000000000 ) );
#435 = DIRECTION( '', ( 1.00000000000000, 0.000000000000000, 0.000000000000000 ) );
#436 = CARTESIAN_POINT( '', ( 0.000000000000000, 0.000000000000000, -18.3327306226894 ) );
#437 = DIRECTION( '', ( 0.000000000000000, 0.000000000000000, 1.00000000000000 ) );
#438 = DIRECTION( '', ( 1.00000000000000, 0.000000000000000, 0.000000000000000 ) );
#439 = CARTESIAN_POINT( '', ( 0.000000000000000, 0.000000000000000, -18.3327306226894 ) );
#440 = DIRECTION( '', ( 0.000000000000000, 0.000000000000000, 1.00000000000000 ) );
#441 = DIRECTION( '', ( 1.00000000000000, 0.000000000000000, 0.000000000000000 ) );
ENDSEC;
END-ISO-10303-21;
