ISO-10303-21;
HEADER;
FILE_DESCRIPTION( ( 'Unknown' ), '1' );
FILE_NAME( '//Server/ofimatica/alfredo/Alfredo2/ISOTUBI/PZAS3D/FICHATECNICA/NUMEPRESS/generico 3D/F21DN108.stp', 'Unknown', ( 'Unknown' ), ( 'Unknown' ), 'PSStep 14.0', 'Unknown', '  ' );
FILE_SCHEMA( ( 'AUTOMOTIVE_DESIGN { 1 0 10303 214 1 1 1 1 }' ) );
ENDSEC;
DATA;
#1 = MECHANICAL_DESIGN_GEOMETRIC_PRESENTATION_REPRESENTATION( ' ', ( #10, #11, #12, #13, #14, #15, #16, #17, #18, #19, #20, #21, #22, #23, #24 ), #6 );
#2 = PRODUCT_DEFINITION_CONTEXT( '', #25, 'design' );
#3 = APPLICATION_PROTOCOL_DEFINITION( 'international standard', 'automotive_design', 2001, #25 );
#4 = PRODUCT_CATEGORY_RELATIONSHIP( 'NONE', 'NONE', #26, #27 );
#5 = SHAPE_DEFINITION_REPRESENTATION( #28, #29 );
#6 =  ( GEOMETRIC_REPRESENTATION_CONTEXT( 3 )GLOBAL_UNCERTAINTY_ASSIGNED_CONTEXT( ( #32 ) )GLOBAL_UNIT_ASSIGNED_CONTEXT( ( #34, #35, #36 ) )REPRESENTATION_CONTEXT( 'NONE', 'WORKSPACE' ) );
#10 = STYLED_ITEM( '', ( #38 ), #39 );
#11 = STYLED_ITEM( '', ( #40 ), #41 );
#12 = STYLED_ITEM( '', ( #42 ), #43 );
#13 = STYLED_ITEM( '', ( #44 ), #45 );
#14 = STYLED_ITEM( '', ( #46 ), #47 );
#15 = STYLED_ITEM( '', ( #48 ), #49 );
#16 = STYLED_ITEM( '', ( #50 ), #51 );
#17 = STYLED_ITEM( '', ( #52 ), #53 );
#18 = STYLED_ITEM( '', ( #54 ), #55 );
#19 = STYLED_ITEM( '', ( #56 ), #57 );
#20 = STYLED_ITEM( '', ( #58 ), #59 );
#21 = STYLED_ITEM( '', ( #60 ), #61 );
#22 = STYLED_ITEM( '', ( #62 ), #63 );
#23 = STYLED_ITEM( '', ( #64 ), #65 );
#24 = STYLED_ITEM( '', ( #66 ), #67 );
#25 = APPLICATION_CONTEXT( 'core data for automotive mechanical design processes' );
#26 = PRODUCT_CATEGORY( 'part', 'NONE' );
#27 = PRODUCT_RELATED_PRODUCT_CATEGORY( 'detail', ' ', ( #68 ) );
#28 = PRODUCT_DEFINITION_SHAPE( 'NONE', 'NONE', #69 );
#29 = ADVANCED_BREP_SHAPE_REPRESENTATION( '1', ( #70, #71 ), #6 );
#32 = UNCERTAINTY_MEASURE_WITH_UNIT( LENGTH_MEASURE( 0.00100000000000000 ), #34, '', '' );
#34 =  ( CONVERSION_BASED_UNIT( 'MILLIMETRE', #74 )LENGTH_UNIT(  )NAMED_UNIT( #77 ) );
#35 =  ( NAMED_UNIT( #79 )PLANE_ANGLE_UNIT(  )SI_UNIT( $, .RADIAN. ) );
#36 =  ( NAMED_UNIT( #79 )SI_UNIT( $, .STERADIAN. )SOLID_ANGLE_UNIT(  ) );
#38 = PRESENTATION_STYLE_ASSIGNMENT( ( #85 ) );
#39 = ADVANCED_FACE( '', ( #86 ), #87, .F. );
#40 = PRESENTATION_STYLE_ASSIGNMENT( ( #88 ) );
#41 = ADVANCED_FACE( '', ( #89, #90 ), #91, .T. );
#42 = PRESENTATION_STYLE_ASSIGNMENT( ( #92 ) );
#43 = ADVANCED_FACE( '', ( #93, #94 ), #95, .T. );
#44 = PRESENTATION_STYLE_ASSIGNMENT( ( #96 ) );
#45 = ADVANCED_FACE( '', ( #97, #98 ), #99, .F. );
#46 = PRESENTATION_STYLE_ASSIGNMENT( ( #100 ) );
#47 = ADVANCED_FACE( '', ( #101, #102 ), #103, .T. );
#48 = PRESENTATION_STYLE_ASSIGNMENT( ( #104 ) );
#49 = ADVANCED_FACE( '', ( #105 ), #106, .T. );
#50 = PRESENTATION_STYLE_ASSIGNMENT( ( #107 ) );
#51 = ADVANCED_FACE( '', ( #108, #109 ), #110, .T. );
#52 = PRESENTATION_STYLE_ASSIGNMENT( ( #111 ) );
#53 = ADVANCED_FACE( '', ( #112, #113 ), #114, .T. );
#54 = PRESENTATION_STYLE_ASSIGNMENT( ( #115 ) );
#55 = ADVANCED_FACE( '', ( #116, #117 ), #118, .T. );
#56 = PRESENTATION_STYLE_ASSIGNMENT( ( #119 ) );
#57 = ADVANCED_FACE( '', ( #120, #121 ), #122, .T. );
#58 = PRESENTATION_STYLE_ASSIGNMENT( ( #123 ) );
#59 = ADVANCED_FACE( '', ( #124 ), #125, .T. );
#60 = PRESENTATION_STYLE_ASSIGNMENT( ( #126 ) );
#61 = ADVANCED_FACE( '', ( #127, #128 ), #129, .F. );
#62 = PRESENTATION_STYLE_ASSIGNMENT( ( #130 ) );
#63 = ADVANCED_FACE( '', ( #131, #132 ), #133, .F. );
#64 = PRESENTATION_STYLE_ASSIGNMENT( ( #134 ) );
#65 = ADVANCED_FACE( '', ( #135, #136 ), #137, .F. );
#66 = PRESENTATION_STYLE_ASSIGNMENT( ( #138 ) );
#67 = ADVANCED_FACE( '', ( #139 ), #140, .F. );
#68 = PRODUCT( '1', '1', 'PART-1-DESC', ( #141 ) );
#69 = PRODUCT_DEFINITION( 'NONE', 'NONE', #142, #2 );
#70 = BREP_WITH_VOIDS( '1', #143, ( #144 ) );
#71 = AXIS2_PLACEMENT_3D( '', #145, #146, #147 );
#74 = LENGTH_MEASURE_WITH_UNIT( LENGTH_MEASURE( 1.00000000000000 ), #148 );
#77 = DIMENSIONAL_EXPONENTS( 1.00000000000000, 0.000000000000000, 0.000000000000000, 0.000000000000000, 0.000000000000000, 0.000000000000000, 0.000000000000000 );
#79 = DIMENSIONAL_EXPONENTS( 0.000000000000000, 0.000000000000000, 0.000000000000000, 0.000000000000000, 0.000000000000000, 0.000000000000000, 0.000000000000000 );
#85 = SURFACE_STYLE_USAGE( .BOTH., #149 );
#86 = FACE_OUTER_BOUND( '', #150, .T. );
#87 = PLANE( '', #151 );
#88 = SURFACE_STYLE_USAGE( .BOTH., #152 );
#89 = FACE_OUTER_BOUND( '', #153, .T. );
#90 = FACE_OUTER_BOUND( '', #154, .T. );
#91 = CYLINDRICAL_SURFACE( '', #155, 53.8880230977772 );
#92 = SURFACE_STYLE_USAGE( .BOTH., #156 );
#93 = FACE_OUTER_BOUND( '', #157, .T. );
#94 = FACE_OUTER_BOUND( '', #158, .T. );
#95 = TOROIDAL_SURFACE( '', #159, 42.8880230977773, 11.0000000000000 );
#96 = SURFACE_STYLE_USAGE( .BOTH., #160 );
#97 = FACE_OUTER_BOUND( '', #161, .T. );
#98 = FACE_OUTER_BOUND( '', #162, .T. );
#99 = TOROIDAL_SURFACE( '', #163, 42.8880230977773, 9.00000000000000 );
#100 = SURFACE_STYLE_USAGE( .BOTH., #164 );
#101 = FACE_OUTER_BOUND( '', #165, .T. );
#102 = FACE_BOUND( '', #166, .T. );
#103 = CONICAL_SURFACE( '', #167, 55.5000000000000, 0.785398163397448 );
#104 = SURFACE_STYLE_USAGE( .BOTH., #168 );
#105 = FACE_OUTER_BOUND( '', #169, .T. );
#106 = SPHERICAL_SURFACE( '', #170, 108.000000000000 );
#107 = SURFACE_STYLE_USAGE( .BOTH., #171 );
#108 = FACE_BOUND( '', #172, .T. );
#109 = FACE_OUTER_BOUND( '', #173, .T. );
#110 = PLANE( '', #174 );
#111 = SURFACE_STYLE_USAGE( .BOTH., #175 );
#112 = FACE_OUTER_BOUND( '', #176, .T. );
#113 = FACE_OUTER_BOUND( '', #177, .T. );
#114 = CYLINDRICAL_SURFACE( '', #178, 57.0000000000000 );
#115 = SURFACE_STYLE_USAGE( .BOTH., #179 );
#116 = FACE_OUTER_BOUND( '', #180, .T. );
#117 = FACE_OUTER_BOUND( '', #181, .T. );
#118 = CYLINDRICAL_SURFACE( '', #182, 55.0000000000000 );
#119 = SURFACE_STYLE_USAGE( .BOTH., #183 );
#120 = FACE_OUTER_BOUND( '', #184, .T. );
#121 = FACE_BOUND( '', #185, .T. );
#122 = PLANE( '', #186 );
#123 = SURFACE_STYLE_USAGE( .BOTH., #187 );
#124 = FACE_OUTER_BOUND( '', #188, .T. );
#125 = PLANE( '', #189 );
#126 = SURFACE_STYLE_USAGE( .BOTH., #190 );
#127 = FACE_OUTER_BOUND( '', #191, .T. );
#128 = FACE_BOUND( '', #192, .T. );
#129 = PLANE( '', #193 );
#130 = SURFACE_STYLE_USAGE( .BOTH., #194 );
#131 = FACE_OUTER_BOUND( '', #195, .T. );
#132 = FACE_OUTER_BOUND( '', #196, .T. );
#133 = CYLINDRICAL_SURFACE( '', #197, 54.0000000000000 );
#134 = SURFACE_STYLE_USAGE( .BOTH., #198 );
#135 = FACE_OUTER_BOUND( '', #199, .T. );
#136 = FACE_OUTER_BOUND( '', #200, .T. );
#137 = CYLINDRICAL_SURFACE( '', #201, 51.8880230977772 );
#138 = SURFACE_STYLE_USAGE( .BOTH., #202 );
#139 = FACE_OUTER_BOUND( '', #203, .T. );
#140 = SPHERICAL_SURFACE( '', #204, 106.000000000000 );
#141 = PRODUCT_CONTEXT( '', #25, 'mechanical' );
#142 = PRODUCT_DEFINITION_FORMATION_WITH_SPECIFIED_SOURCE( ' ', 'NONE', #68, .NOT_KNOWN. );
#143 = CLOSED_SHELL( '', ( #61, #47, #63, #39, #41, #43, #53, #51, #55, #49, #57 ) );
#144 = ORIENTED_CLOSED_SHELL( '', *, #205, .T. );
#145 = CARTESIAN_POINT( '', ( 0.000000000000000, 0.000000000000000, 0.000000000000000 ) );
#146 = DIRECTION( '', ( 0.000000000000000, 0.000000000000000, 1.00000000000000 ) );
#147 = DIRECTION( '', ( 1.00000000000000, 0.000000000000000, 0.000000000000000 ) );
#148 =  ( LENGTH_UNIT(  )NAMED_UNIT( #77 )SI_UNIT( .MILLI., .METRE. ) );
#149 = SURFACE_SIDE_STYLE( '', ( #207 ) );
#150 = EDGE_LOOP( '', ( #208 ) );
#151 = AXIS2_PLACEMENT_3D( '', #209, #210, #211 );
#152 = SURFACE_SIDE_STYLE( '', ( #212 ) );
#153 = EDGE_LOOP( '', ( #213 ) );
#154 = EDGE_LOOP( '', ( #214 ) );
#155 = AXIS2_PLACEMENT_3D( '', #215, #216, #217 );
#156 = SURFACE_SIDE_STYLE( '', ( #218 ) );
#157 = EDGE_LOOP( '', ( #219 ) );
#158 = EDGE_LOOP( '', ( #220 ) );
#159 = AXIS2_PLACEMENT_3D( '', #221, #222, #223 );
#160 = SURFACE_SIDE_STYLE( '', ( #224 ) );
#161 = EDGE_LOOP( '', ( #225 ) );
#162 = EDGE_LOOP( '', ( #226 ) );
#163 = AXIS2_PLACEMENT_3D( '', #227, #228, #229 );
#164 = SURFACE_SIDE_STYLE( '', ( #230 ) );
#165 = EDGE_LOOP( '', ( #231 ) );
#166 = EDGE_LOOP( '', ( #232 ) );
#167 = AXIS2_PLACEMENT_3D( '', #233, #234, #235 );
#168 = SURFACE_SIDE_STYLE( '', ( #236 ) );
#169 = EDGE_LOOP( '', ( #237 ) );
#170 = AXIS2_PLACEMENT_3D( '', #238, #239, #240 );
#171 = SURFACE_SIDE_STYLE( '', ( #241 ) );
#172 = EDGE_LOOP( '', ( #242 ) );
#173 = EDGE_LOOP( '', ( #243 ) );
#174 = AXIS2_PLACEMENT_3D( '', #244, #245, #246 );
#175 = SURFACE_SIDE_STYLE( '', ( #247 ) );
#176 = EDGE_LOOP( '', ( #248 ) );
#177 = EDGE_LOOP( '', ( #249 ) );
#178 = AXIS2_PLACEMENT_3D( '', #250, #251, #252 );
#179 = SURFACE_SIDE_STYLE( '', ( #253 ) );
#180 = EDGE_LOOP( '', ( #254 ) );
#181 = EDGE_LOOP( '', ( #255 ) );
#182 = AXIS2_PLACEMENT_3D( '', #256, #257, #258 );
#183 = SURFACE_SIDE_STYLE( '', ( #259 ) );
#184 = EDGE_LOOP( '', ( #260 ) );
#185 = EDGE_LOOP( '', ( #261 ) );
#186 = AXIS2_PLACEMENT_3D( '', #262, #263, #264 );
#187 = SURFACE_SIDE_STYLE( '', ( #265 ) );
#188 = EDGE_LOOP( '', ( #266 ) );
#189 = AXIS2_PLACEMENT_3D( '', #267, #268, #269 );
#190 = SURFACE_SIDE_STYLE( '', ( #270 ) );
#191 = EDGE_LOOP( '', ( #271 ) );
#192 = EDGE_LOOP( '', ( #272 ) );
#193 = AXIS2_PLACEMENT_3D( '', #273, #274, #275 );
#194 = SURFACE_SIDE_STYLE( '', ( #276 ) );
#195 = EDGE_LOOP( '', ( #277 ) );
#196 = EDGE_LOOP( '', ( #278 ) );
#197 = AXIS2_PLACEMENT_3D( '', #279, #280, #281 );
#198 = SURFACE_SIDE_STYLE( '', ( #282 ) );
#199 = EDGE_LOOP( '', ( #283 ) );
#200 = EDGE_LOOP( '', ( #284 ) );
#201 = AXIS2_PLACEMENT_3D( '', #285, #286, #287 );
#202 = SURFACE_SIDE_STYLE( '', ( #288 ) );
#203 = EDGE_LOOP( '', ( #289 ) );
#204 = AXIS2_PLACEMENT_3D( '', #290, #291, #292 );
#205 = CLOSED_SHELL( '', ( #59, #65, #45, #67 ) );
#207 = SURFACE_STYLE_FILL_AREA( #293 );
#208 = ORIENTED_EDGE( '', *, *, #294, .F. );
#209 = CARTESIAN_POINT( '', ( 0.000000000000000, 0.000000000000000, 48.5035486331708 ) );
#210 = DIRECTION( '', ( 0.000000000000000, 0.000000000000000, 1.00000000000000 ) );
#211 = DIRECTION( '', ( 1.00000000000000, 0.000000000000000, 0.000000000000000 ) );
#212 = SURFACE_STYLE_FILL_AREA( #295 );
#213 = ORIENTED_EDGE( '', *, *, #296, .T. );
#214 = ORIENTED_EDGE( '', *, *, #297, .F. );
#215 = CARTESIAN_POINT( '', ( 0.000000000000000, 0.000000000000000, -0.851403572763064 ) );
#216 = DIRECTION( '', ( -0.000000000000000, -0.000000000000000, 1.00000000000000 ) );
#217 = DIRECTION( '', ( -1.00000000000000, 0.000000000000000, 0.000000000000000 ) );
#218 = SURFACE_STYLE_FILL_AREA( #298 );
#219 = ORIENTED_EDGE( '', *, *, #299, .T. );
#220 = ORIENTED_EDGE( '', *, *, #296, .F. );
#221 = CARTESIAN_POINT( '', ( 0.000000000000000, 0.000000000000000, 87.0035486331709 ) );
#222 = DIRECTION( '', ( 0.000000000000000, 0.000000000000000, -1.00000000000000 ) );
#223 = DIRECTION( '', ( -1.00000000000000, 0.000000000000000, 0.000000000000000 ) );
#224 = SURFACE_STYLE_FILL_AREA( #300 );
#225 = ORIENTED_EDGE( '', *, *, #301, .T. );
#226 = ORIENTED_EDGE( '', *, *, #302, .F. );
#227 = CARTESIAN_POINT( '', ( 0.000000000000000, 0.000000000000000, 87.0035486331709 ) );
#228 = DIRECTION( '', ( 0.000000000000000, 0.000000000000000, -1.00000000000000 ) );
#229 = DIRECTION( '', ( -1.00000000000000, 0.000000000000000, 0.000000000000000 ) );
#230 = SURFACE_STYLE_FILL_AREA( #303 );
#231 = ORIENTED_EDGE( '', *, *, #304, .F. );
#232 = ORIENTED_EDGE( '', *, *, #305, .F. );
#233 = CARTESIAN_POINT( '', ( 0.000000000000000, 0.000000000000000, 50.5035486331708 ) );
#234 = DIRECTION( '', ( -0.000000000000000, 0.000000000000000, -1.00000000000000 ) );
#235 = DIRECTION( '', ( -1.00000000000000, 0.000000000000000, 0.000000000000000 ) );
#236 = SURFACE_STYLE_FILL_AREA( #306 );
#237 = ORIENTED_EDGE( '', *, *, #299, .F. );
#238 = CARTESIAN_POINT( '', ( 0.000000000000000, 0.000000000000000, 0.000000000000000 ) );
#239 = DIRECTION( '', ( 0.000000000000000, 0.000000000000000, -1.00000000000000 ) );
#240 = DIRECTION( '', ( -1.00000000000000, 0.000000000000000, 0.000000000000000 ) );
#241 = SURFACE_STYLE_FILL_AREA( #307 );
#242 = ORIENTED_EDGE( '', *, *, #297, .T. );
#243 = ORIENTED_EDGE( '', *, *, #308, .T. );
#244 = CARTESIAN_POINT( '', ( 0.000000000000000, 0.000000000000000, 76.0035486331708 ) );
#245 = DIRECTION( '', ( 0.000000000000000, 0.000000000000000, 1.00000000000000 ) );
#246 = DIRECTION( '', ( 1.00000000000000, 0.000000000000000, 0.000000000000000 ) );
#247 = SURFACE_STYLE_FILL_AREA( #309 );
#248 = ORIENTED_EDGE( '', *, *, #304, .T. );
#249 = ORIENTED_EDGE( '', *, *, #310, .T. );
#250 = CARTESIAN_POINT( '', ( 0.000000000000000, 0.000000000000000, 50.5035486331708 ) );
#251 = DIRECTION( '', ( -0.000000000000000, -0.000000000000000, 1.00000000000000 ) );
#252 = DIRECTION( '', ( -1.00000000000000, 0.000000000000000, 0.000000000000000 ) );
#253 = SURFACE_STYLE_FILL_AREA( #311 );
#254 = ORIENTED_EDGE( '', *, *, #312, .F. );
#255 = ORIENTED_EDGE( '', *, *, #308, .F. );
#256 = CARTESIAN_POINT( '', ( 0.000000000000000, 0.000000000000000, -20.4964513668291 ) );
#257 = DIRECTION( '', ( -0.000000000000000, -0.000000000000000, -1.00000000000000 ) );
#258 = DIRECTION( '', ( 1.00000000000000, 0.000000000000000, 0.000000000000000 ) );
#259 = SURFACE_STYLE_FILL_AREA( #313 );
#260 = ORIENTED_EDGE( '', *, *, #305, .T. );
#261 = ORIENTED_EDGE( '', *, *, #312, .T. );
#262 = CARTESIAN_POINT( '', ( 0.000000000000000, 0.000000000000000, 50.5035486331708 ) );
#263 = DIRECTION( '', ( 0.000000000000000, 0.000000000000000, 1.00000000000000 ) );
#264 = DIRECTION( '', ( 1.00000000000000, 0.000000000000000, 0.000000000000000 ) );
#265 = SURFACE_STYLE_FILL_AREA( #314 );
#266 = ORIENTED_EDGE( '', *, *, #315, .T. );
#267 = CARTESIAN_POINT( '', ( 0.000000000000000, 0.000000000000000, 76.0035486331708 ) );
#268 = DIRECTION( '', ( 0.000000000000000, 0.000000000000000, 1.00000000000000 ) );
#269 = DIRECTION( '', ( 1.00000000000000, 0.000000000000000, 0.000000000000000 ) );
#270 = SURFACE_STYLE_FILL_AREA( #316 );
#271 = ORIENTED_EDGE( '', *, *, #310, .F. );
#272 = ORIENTED_EDGE( '', *, *, #317, .T. );
#273 = CARTESIAN_POINT( '', ( 0.000000000000000, 0.000000000000000, -20.4964513668291 ) );
#274 = DIRECTION( '', ( 0.000000000000000, 0.000000000000000, 1.00000000000000 ) );
#275 = DIRECTION( '', ( 1.00000000000000, 0.000000000000000, 0.000000000000000 ) );
#276 = SURFACE_STYLE_FILL_AREA( #318 );
#277 = ORIENTED_EDGE( '', *, *, #294, .T. );
#278 = ORIENTED_EDGE( '', *, *, #317, .F. );
#279 = CARTESIAN_POINT( '', ( 0.000000000000000, 0.000000000000000, 48.5035486331708 ) );
#280 = DIRECTION( '', ( -0.000000000000000, -0.000000000000000, 1.00000000000000 ) );
#281 = DIRECTION( '', ( -1.00000000000000, 0.000000000000000, 0.000000000000000 ) );
#282 = SURFACE_STYLE_FILL_AREA( #319 );
#283 = ORIENTED_EDGE( '', *, *, #301, .F. );
#284 = ORIENTED_EDGE( '', *, *, #315, .F. );
#285 = CARTESIAN_POINT( '', ( 0.000000000000000, 0.000000000000000, -0.851403572763064 ) );
#286 = DIRECTION( '', ( -0.000000000000000, -0.000000000000000, 1.00000000000000 ) );
#287 = DIRECTION( '', ( -1.00000000000000, 0.000000000000000, 0.000000000000000 ) );
#288 = SURFACE_STYLE_FILL_AREA( #320 );
#289 = ORIENTED_EDGE( '', *, *, #302, .T. );
#290 = CARTESIAN_POINT( '', ( 0.000000000000000, 0.000000000000000, 0.000000000000000 ) );
#291 = DIRECTION( '', ( 0.000000000000000, 0.000000000000000, -1.00000000000000 ) );
#292 = DIRECTION( '', ( 1.00000000000000, 0.000000000000000, 0.000000000000000 ) );
#293 = FILL_AREA_STYLE( '', ( #321 ) );
#294 = EDGE_CURVE( '', #322, #322, #323, .T. );
#295 = FILL_AREA_STYLE( '', ( #324 ) );
#296 = EDGE_CURVE( '', #325, #325, #326, .T. );
#297 = EDGE_CURVE( '', #327, #327, #328, .T. );
#298 = FILL_AREA_STYLE( '', ( #329 ) );
#299 = EDGE_CURVE( '', #330, #330, #331, .T. );
#300 = FILL_AREA_STYLE( '', ( #332 ) );
#301 = EDGE_CURVE( '', #333, #333, #334, .T. );
#302 = EDGE_CURVE( '', #335, #335, #336, .T. );
#303 = FILL_AREA_STYLE( '', ( #337 ) );
#304 = EDGE_CURVE( '', #338, #338, #339, .F. );
#305 = EDGE_CURVE( '', #340, #340, #341, .T. );
#306 = FILL_AREA_STYLE( '', ( #342 ) );
#307 = FILL_AREA_STYLE( '', ( #343 ) );
#308 = EDGE_CURVE( '', #344, #344, #345, .T. );
#309 = FILL_AREA_STYLE( '', ( #346 ) );
#310 = EDGE_CURVE( '', #347, #347, #348, .T. );
#311 = FILL_AREA_STYLE( '', ( #349 ) );
#312 = EDGE_CURVE( '', #350, #350, #351, .F. );
#313 = FILL_AREA_STYLE( '', ( #352 ) );
#314 = FILL_AREA_STYLE( '', ( #353 ) );
#315 = EDGE_CURVE( '', #354, #354, #355, .T. );
#316 = FILL_AREA_STYLE( '', ( #356 ) );
#317 = EDGE_CURVE( '', #357, #357, #358, .T. );
#318 = FILL_AREA_STYLE( '', ( #359 ) );
#319 = FILL_AREA_STYLE( '', ( #360 ) );
#320 = FILL_AREA_STYLE( '', ( #361 ) );
#321 = FILL_AREA_STYLE_COLOUR( '', #362 );
#322 = VERTEX_POINT( '', #363 );
#323 = CIRCLE( '', #364, 54.0000000000000 );
#324 = FILL_AREA_STYLE_COLOUR( '', #365 );
#325 = VERTEX_POINT( '', #366 );
#326 = CIRCLE( '', #367, 53.8880230977772 );
#327 = VERTEX_POINT( '', #368 );
#328 = CIRCLE( '', #369, 53.8880230977772 );
#329 = FILL_AREA_STYLE_COLOUR( '', #370 );
#330 = VERTEX_POINT( '', #371 );
#331 = CIRCLE( '', #372, 47.7516133459788 );
#332 = FILL_AREA_STYLE_COLOUR( '', #373 );
#333 = VERTEX_POINT( '', #374 );
#334 = CIRCLE( '', #375, 51.8880230977772 );
#335 = VERTEX_POINT( '', #376 );
#336 = CIRCLE( '', #377, 46.8673242099421 );
#337 = FILL_AREA_STYLE_COLOUR( '', #378 );
#338 = VERTEX_POINT( '', #379 );
#339 = CIRCLE( '', #380, 57.0000000000000 );
#340 = VERTEX_POINT( '', #381 );
#341 = CIRCLE( '', #382, 55.5000000000000 );
#342 = FILL_AREA_STYLE_COLOUR( '', #383 );
#343 = FILL_AREA_STYLE_COLOUR( '', #384 );
#344 = VERTEX_POINT( '', #385 );
#345 = CIRCLE( '', #386, 55.0000000000000 );
#346 = FILL_AREA_STYLE_COLOUR( '', #387 );
#347 = VERTEX_POINT( '', #388 );
#348 = CIRCLE( '', #389, 57.0000000000000 );
#349 = FILL_AREA_STYLE_COLOUR( '', #390 );
#350 = VERTEX_POINT( '', #391 );
#351 = CIRCLE( '', #392, 55.0000000000000 );
#352 = FILL_AREA_STYLE_COLOUR( '', #393 );
#353 = FILL_AREA_STYLE_COLOUR( '', #394 );
#354 = VERTEX_POINT( '', #395 );
#355 = CIRCLE( '', #396, 51.8880230977772 );
#356 = FILL_AREA_STYLE_COLOUR( '', #397 );
#357 = VERTEX_POINT( '', #398 );
#358 = CIRCLE( '', #399, 54.0000000000000 );
#359 = FILL_AREA_STYLE_COLOUR( '', #400 );
#360 = FILL_AREA_STYLE_COLOUR( '', #401 );
#361 = FILL_AREA_STYLE_COLOUR( '', #402 );
#362 = COLOUR_RGB( '', 0.698039233684540, 0.670588254928589, 0.670588254928589 );
#363 = CARTESIAN_POINT( '', ( 54.0000000000000, 0.000000000000000, 48.5035486331708 ) );
#364 = AXIS2_PLACEMENT_3D( '', #403, #404, #405 );
#365 = COLOUR_RGB( '', 0.698039233684540, 0.670588254928589, 0.670588254928589 );
#366 = CARTESIAN_POINT( '', ( -53.8880230977772, 0.000000000000000, 87.0035486331709 ) );
#367 = AXIS2_PLACEMENT_3D( '', #406, #407, #408 );
#368 = CARTESIAN_POINT( '', ( -53.8880230977772, 0.000000000000000, 76.0035486331709 ) );
#369 = AXIS2_PLACEMENT_3D( '', #409, #410, #411 );
#370 = COLOUR_RGB( '', 0.698039233684540, 0.670588254928589, 0.670588254928589 );
#371 = CARTESIAN_POINT( '', ( -47.7516133459788, 0.000000000000000, 96.8699304369325 ) );
#372 = AXIS2_PLACEMENT_3D( '', #412, #413, #414 );
#373 = COLOUR_RGB( '', 0.698039233684540, 0.670588254928589, 0.670588254928589 );
#374 = CARTESIAN_POINT( '', ( -51.8880230977772, 0.000000000000000, 87.0035486331709 ) );
#375 = AXIS2_PLACEMENT_3D( '', #415, #416, #417 );
#376 = CARTESIAN_POINT( '', ( -46.8673242099421, 0.000000000000000, 95.0760428362486 ) );
#377 = AXIS2_PLACEMENT_3D( '', #418, #419, #420 );
#378 = COLOUR_RGB( '', 0.698039233684540, 0.670588254928589, 0.670588254928589 );
#379 = CARTESIAN_POINT( '', ( 57.0000000000000, 0.000000000000000, 49.0035486331708 ) );
#380 = AXIS2_PLACEMENT_3D( '', #421, #422, #423 );
#381 = CARTESIAN_POINT( '', ( 55.5000000000000, 0.000000000000000, 50.5035486331708 ) );
#382 = AXIS2_PLACEMENT_3D( '', #424, #425, #426 );
#383 = COLOUR_RGB( '', 0.698039233684540, 0.670588254928589, 0.670588254928589 );
#384 = COLOUR_RGB( '', 0.698039233684540, 0.670588254928589, 0.670588254928589 );
#385 = CARTESIAN_POINT( '', ( 55.0000000000000, 0.000000000000000, 76.0035486331708 ) );
#386 = AXIS2_PLACEMENT_3D( '', #427, #428, #429 );
#387 = COLOUR_RGB( '', 0.698039233684540, 0.670588254928589, 0.670588254928589 );
#388 = CARTESIAN_POINT( '', ( 57.0000000000000, 0.000000000000000, -20.4964513668291 ) );
#389 = AXIS2_PLACEMENT_3D( '', #430, #431, #432 );
#390 = COLOUR_RGB( '', 0.698039233684540, 0.670588254928589, 0.670588254928589 );
#391 = CARTESIAN_POINT( '', ( 55.0000000000000, 0.000000000000000, 50.5035486331708 ) );
#392 = AXIS2_PLACEMENT_3D( '', #433, #434, #435 );
#393 = COLOUR_RGB( '', 0.698039233684540, 0.670588254928589, 0.670588254928589 );
#394 = COLOUR_RGB( '', 0.698039233684540, 0.670588254928589, 0.670588254928589 );
#395 = CARTESIAN_POINT( '', ( 51.8880230977772, 0.000000000000000, 76.0035486331708 ) );
#396 = AXIS2_PLACEMENT_3D( '', #436, #437, #438 );
#397 = COLOUR_RGB( '', 0.698039233684540, 0.670588254928589, 0.670588254928589 );
#398 = CARTESIAN_POINT( '', ( 54.0000000000000, 0.000000000000000, -20.4964513668291 ) );
#399 = AXIS2_PLACEMENT_3D( '', #439, #440, #441 );
#400 = COLOUR_RGB( '', 0.698039233684540, 0.670588254928589, 0.670588254928589 );
#401 = COLOUR_RGB( '', 0.698039233684540, 0.670588254928589, 0.670588254928589 );
#402 = COLOUR_RGB( '', 0.698039233684540, 0.670588254928589, 0.670588254928589 );
#403 = CARTESIAN_POINT( '', ( 0.000000000000000, 0.000000000000000, 48.5035486331708 ) );
#404 = DIRECTION( '', ( 0.000000000000000, 0.000000000000000, 1.00000000000000 ) );
#405 = DIRECTION( '', ( 1.00000000000000, 0.000000000000000, 0.000000000000000 ) );
#406 = CARTESIAN_POINT( '', ( 0.000000000000000, 0.000000000000000, 87.0035486331709 ) );
#407 = DIRECTION( '', ( 0.000000000000000, 0.000000000000000, -1.00000000000000 ) );
#408 = DIRECTION( '', ( -1.00000000000000, 0.000000000000000, 0.000000000000000 ) );
#409 = CARTESIAN_POINT( '', ( 0.000000000000000, 0.000000000000000, 76.0035486331709 ) );
#410 = DIRECTION( '', ( 0.000000000000000, 0.000000000000000, -1.00000000000000 ) );
#411 = DIRECTION( '', ( -1.00000000000000, 0.000000000000000, 0.000000000000000 ) );
#412 = CARTESIAN_POINT( '', ( 0.000000000000000, 0.000000000000000, 96.8699304369325 ) );
#413 = DIRECTION( '', ( 0.000000000000000, 0.000000000000000, -1.00000000000000 ) );
#414 = DIRECTION( '', ( -1.00000000000000, 0.000000000000000, 0.000000000000000 ) );
#415 = CARTESIAN_POINT( '', ( 0.000000000000000, 0.000000000000000, 87.0035486331709 ) );
#416 = DIRECTION( '', ( 0.000000000000000, 0.000000000000000, -1.00000000000000 ) );
#417 = DIRECTION( '', ( -1.00000000000000, 0.000000000000000, 0.000000000000000 ) );
#418 = CARTESIAN_POINT( '', ( 0.000000000000000, 0.000000000000000, 95.0760428362486 ) );
#419 = DIRECTION( '', ( 0.000000000000000, 0.000000000000000, -1.00000000000000 ) );
#420 = DIRECTION( '', ( -1.00000000000000, 0.000000000000000, 0.000000000000000 ) );
#421 = CARTESIAN_POINT( '', ( 0.000000000000000, 0.000000000000000, 49.0035486331708 ) );
#422 = DIRECTION( '', ( 0.000000000000000, 0.000000000000000, 1.00000000000000 ) );
#423 = DIRECTION( '', ( 1.00000000000000, 0.000000000000000, 0.000000000000000 ) );
#424 = CARTESIAN_POINT( '', ( 0.000000000000000, 0.000000000000000, 50.5035486331708 ) );
#425 = DIRECTION( '', ( 0.000000000000000, 0.000000000000000, 1.00000000000000 ) );
#426 = DIRECTION( '', ( 1.00000000000000, 0.000000000000000, 0.000000000000000 ) );
#427 = CARTESIAN_POINT( '', ( 0.000000000000000, 0.000000000000000, 76.0035486331708 ) );
#428 = DIRECTION( '', ( 0.000000000000000, 0.000000000000000, 1.00000000000000 ) );
#429 = DIRECTION( '', ( 1.00000000000000, 0.000000000000000, 0.000000000000000 ) );
#430 = CARTESIAN_POINT( '', ( 0.000000000000000, 0.000000000000000, -20.4964513668291 ) );
#431 = DIRECTION( '', ( 0.000000000000000, 0.000000000000000, 1.00000000000000 ) );
#432 = DIRECTION( '', ( 1.00000000000000, 0.000000000000000, 0.000000000000000 ) );
#433 = CARTESIAN_POINT( '', ( 0.000000000000000, 0.000000000000000, 50.5035486331708 ) );
#434 = DIRECTION( '', ( 0.000000000000000, 0.000000000000000, 1.00000000000000 ) );
#435 = DIRECTION( '', ( 1.00000000000000, 0.000000000000000, 0.000000000000000 ) );
#436 = CARTESIAN_POINT( '', ( 0.000000000000000, 0.000000000000000, 76.0035486331708 ) );
#437 = DIRECTION( '', ( 0.000000000000000, 0.000000000000000, 1.00000000000000 ) );
#438 = DIRECTION( '', ( 1.00000000000000, 0.000000000000000, 0.000000000000000 ) );
#439 = CARTESIAN_POINT( '', ( 0.000000000000000, 0.000000000000000, -20.4964513668291 ) );
#440 = DIRECTION( '', ( 0.000000000000000, 0.000000000000000, 1.00000000000000 ) );
#441 = DIRECTION( '', ( 1.00000000000000, 0.000000000000000, 0.000000000000000 ) );
ENDSEC;
END-ISO-10303-21;
